  0
SECTION
  2
ENTITIES
  0
LINE
  8
0
 10
1016
 20
1016
 30
0.0
 11
0
 21
0
 31
0.0
  0
LINE
  8
0
 10
0
 20
0
 30
0.0
 11
60.15636
 21
0
 31
0.0
  0
LINE
  8
0
 10
60.15636
 20
0
 30
0.0
 11
1076.156
 21
1016
 31
0.0
  0
LINE
  8
0
 10
1076.156
 20
1016
 30
0.0
 11
1136.313
 21
1016
 31
0.0
  0
LINE
  8
0
 10
1136.313
 20
1016
 30
0.0
 11
120.3127
 21
0
 31
0.0
  0
LINE
  8
0
 10
120.3127
 20
0
 30
0.0
 11
1136.313
 21
-1016
 31
0.0
  0
LINE
  8
0
 10
1136.313
 20
-1016
 30
0.0
 11
1076.156
 21
-1016
 31
0.0
  0
LINE
  8
0
 10
1076.156
 20
-1016
 30
0.0
 11
60.15636
 21
0
 31
0.0
  0
LINE
  8
0
 10
60.15636
 20
0
 30
0.0
 11
0
 21
0
 31
0.0
  0
LINE
  8
0
 10
0
 20
0
 30
0.0
 11
1016
 21
-1016
 31
0.0
  0
CIRCLE
  8
0
 10
1000
 20
6000
 30
0.0
 40
100
  0
CIRCLE
  8
0
 10
1000
 20
8000
 30
0.0
 40
100
  0
CIRCLE
  8
0
 10
3000
 20
6000
 30
0.0
 40
100
  0
CIRCLE
  8
0
 10
3000
 20
8000
 30
0.0
 40
100
  0
CIRCLE
  8
0
 10
5000
 20
6000
 30
0.0
 40
100
  0
CIRCLE
  8
0
 10
5000
 20
8000
 30
0.0
 40
100
  0
CIRCLE
  8
0
 10
100
 20
100
 30
0.0
 40
125
  0
CIRCLE
  8
0
 10
200
 20
200
 30
0.0
 40
200
  0
CIRCLE
  8
0
 10
300
 20
300
 30
0.0
 40
200
  0
CIRCLE
  8
0
 10
350
 20
350
 30
0.0
 40
200
  0
CIRCLE
  8
0
 10
360
 20
360
 30
0.0
 40
200
  0
CIRCLE
  8
0
 10
370
 20
370
 30
0.0
 40
200
  0
ENDSEC
  0
EOF
