  0
SECTION
  2
ENTITIES
  0
ARC
  8
0
 10
-58.47694
 20
1029.099
 30
0.0
 40
339.5413
 50
308.1267
 51
357.7892
  0
ARC
  8
0
 10
360.7903
 20
494.9016
 30
0.0
 40
339.5413
 50
128.1269
 51
177.7893
  0
ARC
  8
0
 10
360.7903
 20
521.0944
 30
0.0
 40
339.5413
 50
182.2105
 51
231.8729
  0
ARC
  8
0
 10
-58.4793
 20
-13.10073
 30
0.0
 40
339.5413
 50
2.21086
 51
51.87325
  0
ARC
  8
0
 10
620.0979
 20
13.09368
 30
0.0
 40
339.5413
 50
182.2105
 51
231.8729
  0
ARC
  8
0
 10
200.8283
 20
-521.1014
 30
0.0
 40
339.5413
 50
2.21086
 51
51.87325
  0
ARC
  8
0
 10
200.8284
 20
-494.9028
 30
0.0
 40
339.5413
 50
308.1267
 51
357.7892
  0
ARC
  8
0
 10
620.0956
 20
-1029.1
 30
0.0
 40
339.5413
 50
128.1269
 51
177.7893
  0
CIRCLE
  8
0
 10
1000
 20
6000
 30
0.0
 40
100
  0
CIRCLE
  8
0
 10
1000
 20
8000
 30
0.0
 40
100
  0
CIRCLE
  8
0
 10
2000
 20
6000
 30
0.0
 40
100
  0
CIRCLE
  8
0
 10
2000
 20
8000
 30
0.0
 40
100
  0
CIRCLE
  8
0
 10
3000
 20
6000
 30
0.0
 40
100
  0
CIRCLE
  8
0
 10
3000
 20
8000
 30
0.0
 40
100
  0
CIRCLE
  8
0
 10
100
 20
100
 30
0.0
 40
125
  0
CIRCLE
  8
0
 10
200
 20
200
 30
0.0
 40
200
  0
CIRCLE
  8
0
 10
300
 20
300
 30
0.0
 40
200
  0
CIRCLE
  8
0
 10
350
 20
350
 30
0.0
 40
200
  0
CIRCLE
  8
0
 10
360
 20
360
 30
0.0
 40
200
  0
CIRCLE
  8
0
 10
370
 20
370
 30
0.0
 40
200
  0
ENDSEC
  0
EOF
