  0
SECTION
  2
ENTITIES
  0
LINE
  8
0
 10
254
 20
254
 30
0.0
 11
204.3217
 21
254
 31
0.0
  0
LINE
  8
0
 10
204.3217
 20
254
 30
0.0
 11
-127
 21
-77.32174
 31
0.0
  0
LINE
  8
0
 10
-127
 20
-77.32174
 30
0.0
 11
-127
 21
-127
 31
0.0
  0
LINE
  8
0
 10
-127
 20
-127
 30
0.0
 11
-77.32174
 21
-127
 31
0.0
  0
LINE
  8
0
 10
-77.32174
 20
-127
 30
0.0
 11
254
 21
204.3217
 31
0.0
  0
LINE
  8
0
 10
254
 20
204.3217
 30
0.0
 11
585.3218
 21
-127
 31
0.0
  0
LINE
  8
0
 10
585.3218
 20
-127
 30
0.0
 11
254
 21
204.3217
 31
0.0
  0
LINE
  8
0
 10
254
 20
204.3217
 30
0.0
 11
254
 21
254
 31
0.0
  0
LINE
  8
0
 10
254
 20
254
 30
0.0
 11
303.6783
 21
254
 31
0.0
  0
LINE
  8
0
 10
303.6783
 20
254
 30
0.0
 11
635
 21
-77.32174
 31
0.0
  0
LINE
  8
0
 10
635
 20
-77.32174
 30
0.0
 11
635
 21
-127
 31
0.0
  0
LINE
  8
0
 10
635
 20
-127
 30
0.0
 11
585.3218
 21
-127
 31
0.0
  0
LINE
  8
0
 10
585.3218
 20
-127
 30
0.0
 11
254
 21
-458.3217
 31
0.0
  0
LINE
  8
0
 10
254
 20
-458.3217
 30
0.0
 11
585.3218
 21
-127
 31
0.0
  0
LINE
  8
0
 10
585.3218
 20
-127
 30
0.0
 11
635
 21
-127
 31
0.0
  0
LINE
  8
0
 10
635
 20
-127
 30
0.0
 11
635
 21
-176.6783
 31
0.0
  0
LINE
  8
0
 10
635
 20
-176.6783
 30
0.0
 11
303.6783
 21
-508
 31
0.0
  0
LINE
  8
0
 10
303.6783
 20
-508
 30
0.0
 11
254
 21
-508
 31
0.0
  0
LINE
  8
0
 10
254
 20
-508
 30
0.0
 11
204.3217
 21
-508
 31
0.0
  0
LINE
  8
0
 10
204.3217
 20
-508
 30
0.0
 11
-127
 21
-176.6783
 31
0.0
  0
LINE
  8
0
 10
-127
 20
-176.6783
 30
0.0
 11
-127
 21
-127
 31
0.0
  0
LINE
  8
0
 10
-127
 20
-127
 30
0.0
 11
-77.32174
 21
-127
 31
0.0
  0
LINE
  8
0
 10
-77.32174
 20
-127
 30
0.0
 11
254
 21
-458.3217
 31
0.0
  0
LINE
  8
0
 10
254
 20
-458.3217
 30
0.0
 11
254
 21
-508
 31
0.0
  0
CIRCLE
  8
0
 10
1000
 20
7000
 30
0.0
 40
100
  0
CIRCLE
  8
0
 10
2500
 20
7000
 30
0.0
 40
100
  0
CIRCLE
  8
0
 10
4000
 20
7000
 30
0.0
 40
100
  0
CIRCLE
  8
0
 10
100
 20
100
 30
0.0
 40
125
  0
CIRCLE
  8
0
 10
200
 20
200
 30
0.0
 40
200
  0
CIRCLE
  8
0
 10
300
 20
300
 30
0.0
 40
200
  0
CIRCLE
  8
0
 10
350
 20
350
 30
0.0
 40
200
  0
CIRCLE
  8
0
 10
360
 20
360
 30
0.0
 40
200
  0
CIRCLE
  8
0
 10
370
 20
370
 30
0.0
 40
200
  0
ENDSEC
  0
EOF
