  0
SECTION
  2
ENTITIES
  0
ARC
  8
0
 10
-354.4441
 20
771.3941
 30
0.0
 40
363.0129
 50
295.5925
 51
358.5162
  0
LINE
  8
0
 10
-197.6356
 20
443.996
 30
0.0
 11
-501.011
 21
317.9901
 31
0.0
  0
ARC
  8
0
 10
-344.198
 20
-9.405823
 30
0.0
 40
363.0129
 50
115.5931
 51
178.5169
  0
ARC
  8
0
 10
-344.198
 20
9.384357
 30
0.0
 40
363.0129
 50
181.4828
 51
244.4065
  0
LINE
  8
0
 10
-501.008
 20
-318.0103
 30
0.0
 11
-197.6314
 21
-444.0133
 31
0.0
  0
ARC
  8
0
 10
-354.4367
 20
-771.4128
 30
0.0
 40
363.0129
 50
1.484625
 51
64.40836
  0
CIRCLE
  8
0
 10
1000
 20
7000
 30
0.0
 40
100
  0
CIRCLE
  8
0
 10
3000
 20
7000
 30
0.0
 40
100
  0
CIRCLE
  8
0
 10
5000
 20
7000
 30
0.0
 40
100
  0
CIRCLE
  8
0
 10
100
 20
100
 30
0.0
 40
128
  0
CIRCLE
  8
0
 10
200
 20
200
 30
0.0
 40
200
  0
CIRCLE
  8
0
 10
300
 20
300
 30
0.0
 40
200
  0
CIRCLE
  8
0
 10
350
 20
350
 30
0.0
 40
200
  0
CIRCLE
  8
0
 10
360
 20
360
 30
0.0
 40
200
  0
CIRCLE
  8
0
 10
370
 20
370
 30
0.0
 40
200
  0
ENDSEC
  0
EOF
