  0
SECTION
  2
ENTITIES
  0
LINE
  8
0
 10
229.4825
 20
271.7324
 30
0.0
 11
229.4825
 21
228.351
 31
0.0
  0
LINE
  8
0
 10
229.4825
 20
228.351
 30
0.0
 11
-97.48978
 21
-98.88103
 31
0.0
  0
LINE
  8
0
 10
-97.48978
 20
-98.88103
 30
0.0
 11
-129.5213
 21
-66.79339
 31
0.0
  0
LINE
  8
0
 10
-129.5213
 20
-66.79339
 30
0.0
 11
219.3895
 21
282.1189
 31
0.0
  0
LINE
  8
0
 10
219.3895
 20
282.1189
 30
0.0
 11
229.4825
 21
271.7324
 31
0.0
  0
LINE
  8
0
 10
229.4825
 20
271.7324
 30
0.0
 11
251.421
 21
250.0313
 31
0.0
  0
LINE
  8
0
 10
251.421
 20
250.0313
 30
0.0
 11
273.3594
 21
271.7324
 31
0.0
  0
LINE
  8
0
 10
273.3594
 20
271.7324
 30
0.0
 11
283.4525
 21
282.1189
 31
0.0
  0
LINE
  8
0
 10
283.4525
 20
282.1189
 30
0.0
 11
632.3632
 21
-66.79339
 31
0.0
  0
LINE
  8
0
 10
632.3632
 20
-66.79339
 30
0.0
 11
600.3317
 21
-98.88103
 31
0.0
  0
LINE
  8
0
 10
600.3317
 20
-98.88103
 30
0.0
 11
273.3594
 21
228.351
 31
0.0
  0
LINE
  8
0
 10
273.3594
 20
228.351
 30
0.0
 11
273.3594
 21
271.7324
 31
0.0
  0
LINE
  8
0
 10
273.3594
 20
271.7324
 30
0.0
 11
273.3594
 21
228.351
 31
0.0
  0
LINE
  8
0
 10
273.3594
 20
228.351
 30
0.0
 11
273.3594
 21
-426.113
 31
0.0
  0
LINE
  8
0
 10
273.3594
 20
-426.113
 30
0.0
 11
273.3594
 21
228.351
 31
0.0
  0
LINE
  8
0
 10
273.3594
 20
228.351
 30
0.0
 11
251.421
 21
250.0313
 31
0.0
  0
LINE
  8
0
 10
251.421
 20
250.0313
 30
0.0
 11
229.4825
 21
228.351
 31
0.0
  0
LINE
  8
0
 10
229.4825
 20
228.351
 30
0.0
 11
229.4825
 21
-426.113
 31
0.0
  0
LINE
  8
0
 10
229.4825
 20
-426.113
 30
0.0
 11
-97.48978
 21
-98.88103
 31
0.0
  0
LINE
  8
0
 10
-97.48978
 20
-98.88103
 30
0.0
 11
-129.5213
 21
-130.9687
 31
0.0
  0
LINE
  8
0
 10
-129.5213
 20
-130.9687
 30
0.0
 11
219.3895
 21
-479.8811
 31
0.0
  0
LINE
  8
0
 10
219.3895
 20
-479.881
 30
0.0
 11
229.4825
 21
-469.4944
 31
0.0
  0
LINE
  8
0
 10
229.4825
 20
-469.4944
 30
0.0
 11
229.4825
 21
-426.113
 31
0.0
  0
LINE
  8
0
 10
229.4825
 20
-426.113
 30
0.0
 11
251.421
 21
-447.7933
 31
0.0
  0
LINE
  8
0
 10
251.421
 20
-447.7933
 30
0.0
 11
273.3594
 21
-469.4944
 31
0.0
  0
LINE
  8
0
 10
273.3594
 20
-469.4944
 30
0.0
 11
283.4525
 21
-479.881
 31
0.0
  0
LINE
  8
0
 10
283.4525
 20
-479.8811
 30
0.0
 11
632.3632
 21
-130.9687
 31
0.0
  0
LINE
  8
0
 10
632.3632
 20
-130.9687
 30
0.0
 11
600.3317
 21
-98.88103
 31
0.0
  0
LINE
  8
0
 10
600.3317
 20
-98.88103
 30
0.0
 11
273.3594
 21
-426.113
 31
0.0
  0
LINE
  8
0
 10
273.3594
 20
-426.113
 30
0.0
 11
273.3594
 21
-469.4944
 31
0.0
  0
LINE
  8
0
 10
273.3594
 20
-469.4944
 30
0.0
 11
273.3594
 21
-426.113
 31
0.0
  0
LINE
  8
0
 10
273.3594
 20
-426.113
 30
0.0
 11
251.421
 21
-447.7933
 31
0.0
  0
LINE
  8
0
 10
251.421
 20
-447.7933
 30
0.0
 11
229.4825
 21
-469.4944
 31
0.0
  0
LINE
  8
0
 10
229.4825
 20
-469.4944
 30
0.0
 11
229.4825
 21
-490.2676
 31
0.0
  0
CIRCLE
  8
0
 10
1000
 20
7000
 30
0.0
 40
100
  0
CIRCLE
  8
0
 10
2500
 20
7000
 30
0.0
 40
100
  0
CIRCLE
  8
0
 10
4000
 20
7000
 30
0.0
 40
100
  0
CIRCLE
  8
0
 10
100
 20
100
 30
0.0
 40
125
  0
CIRCLE
  8
0
 10
200
 20
200
 30
0.0
 40
200
  0
CIRCLE
  8
0
 10
300
 20
300
 30
0.0
 40
200
  0
CIRCLE
  8
0
 10
350
 20
350
 30
0.0
 40
200
  0
CIRCLE
  8
0
 10
360
 20
360
 30
0.0
 40
200
  0
CIRCLE
  8
0
 10
370
 20
370
 30
0.0
 40
200
  0
ENDSEC
  0
EOF
