  0
SECTION
  2
ENTITIES
  0
LINE
  8
0
 10
-9.416501E-04
 20
253.9218
 30
0.0
 11
-9.416501E-04
 21
190.4218
 31
0.0
  0
LINE
  8
0
 10
-9.416501E-04
 20
190.4218
 30
0.0
 11
63.49906
 21
190.4218
 31
0.0
  0
LINE
  8
0
 10
63.49906
 20
190.4218
 30
0.0
 11
126.9991
 21
190.4218
 31
0.0
  0
LINE
  8
0
 10
126.9991
 20
190.4218
 30
0.0
 11
190.4991
 21
190.4218
 31
0.0
  0
LINE
  8
0
 10
190.4991
 20
190.4218
 30
0.0
 11
253.9991
 21
190.4218
 31
0.0
  0
LINE
  8
0
 10
253.9991
 20
190.4218
 30
0.0
 11
253.9991
 21
126.9218
 31
0.0
  0
LINE
  8
0
 10
254
 20
126.9218
 30
0.0
 11
190.5
 21
126.9218
 31
0.0
  0
LINE
  8
0
 10
190.4991
 20
126.9218
 30
0.0
 11
190.4991
 21
190.4218
 31
0.0
  0
LINE
  8
0
 10
190.4981
 20
190.4218
 30
0.0
 11
190.4981
 21
253.9218
 31
0.0
  0
LINE
  8
0
 10
190.4981
 20
253.9218
 30
0.0
 11
126.9991
 21
253.9218
 31
0.0
  0
LINE
  8
0
 10
126.9991
 20
253.9218
 30
0.0
 11
126.9991
 21
190.4218
 31
0.0
  0
LINE
  8
0
 10
127
 20
190.4218
 30
0.0
 11
127
 21
126.9218
 31
0.0
  0
LINE
  8
0
 10
127
 20
126.9218
 30
0.0
 11
63.5
 21
126.9218
 31
0.0
  0
LINE
  8
0
 10
63.49906
 20
126.9218
 30
0.0
 11
63.49906
 21
190.4218
 31
0.0
  0
LINE
  8
0
 10
63.49812
 20
190.4218
 30
0.0
 11
63.49812
 21
253.9218
 31
0.0
  0
LINE
  8
0
 10
63.49812
 20
253.9218
 30
0.0
 11
63.49812
 21
190.4218
 31
0.0
  0
LINE
  8
0
 10
63.49906
 20
190.4218
 30
0.0
 11
63.49906
 21
126.9218
 31
0.0
  0
LINE
  8
0
 10
63.5
 20
126.9218
 30
0.0
 11
0
 21
126.9218
 31
0.0
  0
CIRCLE
  8
0
 10
1000
 20
7000
 30
0.0
 40
100
  0
CIRCLE
  8
0
 10
1500
 20
7000
 30
0.0
 40
100
  0
CIRCLE
  8
0
 10
100
 20
100
 30
0.0
 40
125
  0
CIRCLE
  8
0
 10
200
 20
200
 30
0.0
 40
200
  0
CIRCLE
  8
0
 10
300
 20
300
 30
0.0
 40
200
  0
CIRCLE
  8
0
 10
350
 20
350
 30
0.0
 40
200
  0
CIRCLE
  8
0
 10
360
 20
360
 30
0.0
 40
200
  0
CIRCLE
  8
0
 10
370
 20
370
 30
0.0
 40
200
  0
ENDSEC
  0
EOF
