  0
SECTION
  2
ENTITIES
  0
ARC
  8
0
 10
232.6561
 20
19.37204
 30
0.0
 40
177.653
 50
186.2601
 51
225.7815
  0
LINE
  8
0
 10
108.7615
 20
-107.9492
 30
0.0
 11
216.7124
 21
-215.8999
 31
0.0
  0
LINE
  8
0
 10
216.7124
 20
-215.8999
 30
0.0
 11
307.6621
 21
-303.4497
 31
0.0
  0
ARC
  8
0
 10
356.2124
 20
-237.9886
 30
0.0
 40
81.50015
 50
233.4372
 51
310.6913
  0
LINE
  8
0
 10
409.3484
 20
-299.7856
 30
0.0
 11
490.4102
 21
-219.125
 31
0.0
  0
LINE
  8
0
 10
490.4107
 20
-219.1233
 30
0.0
 11
570.673
 21
-138.4621
 31
0.0
  0
LINE
  8
0
 10
570.673
 20
-138.4621
 30
0.0
 11
651.7348
 21
-57.80152
 31
0.0
  0
ARC
  8
0
 10
584.9532
 20
13.70976
 30
0.0
 40
97.84413
 50
313.0423
 51
351.9456
  0
ARC
  8
0
 10
584.9533
 20
-13.70981
 30
0.0
 40
97.84413
 50
8.054911
 51
46.95819
  0
LINE
  8
0
 10
651.7348
 20
57.80154
 30
0.0
 11
570.673
 21
138.4621
 31
0.0
  0
LINE
  8
0
 10
570.673
 20
138.4621
 30
0.0
 11
490.4107
 21
219.1233
 31
0.0
  0
ARC
  8
0
 10
418.9026
 20
152.341
 30
0.0
 40
97.84413
 50
43.04226
 51
81.94552
  0
ARC
  8
0
 10
446.3221
 20
152.3411
 30
0.0
 40
97.84413
 50
98.05481
 51
136.9581
  0
LINE
  8
0
 10
374.8123
 20
219.123
 30
0.0
 11
294.5507
 21
138.4612
 31
0.0
  0
LINE
  8
0
 10
294.5507
 20
138.4612
 30
0.0
 11
213.4895
 21
57.80011
 31
0.0
  0
ARC
  8
0
 10
280.2712
 20
-13.70981
 30
0.0
 40
97.84413
 50
133.0419
 51
171.9452
  0
ARC
  8
0
 10
280.2713
 20
13.70976
 30
0.0
 40
97.84413
 50
188.0545
 51
226.9578
  0
LINE
  8
0
 10
213.4895
 20
-57.80009
 30
0.0
 11
294.5507
 21
-138.4612
 31
0.0
  0
LINE
  8
0
 10
294.5507
 20
-138.4612
 30
0.0
 11
374.8123
 21
-219.123
 31
0.0
  0
LINE
  8
0
 10
374.8123
 20
-219.123
 30
0.0
 11
455.0739
 21
-299.7848
 31
0.0
  0
ARC
  8
0
 10
509.4641
 20
-229.9799
 30
0.0
 40
88.49293
 50
232.0753
 51
307.6446
  0
LINE
  8
0
 10
563.5118
 20
-300.0501
 30
0.0
 11
648.5121
 21
-215.8999
 31
0.0
  0
LINE
  8
0
 10
648.5121
 20
-215.8999
 30
0.0
 11
756.4628
 21
-107.949
 31
0.0
  0
ARC
  8
0
 10
883.7805
 20
-231.8439
 30
0.0
 40
177.653
 50
96.2591
 51
135.7806
  0
ARC
  8
0
 10
845.04
 20
-231.8436
 30
0.0
 40
177.653
 50
44.21854
 51
83.73997
  0
LINE
  8
0
 10
972.3613
 20
-107.949
 30
0.0
 11
1080.312
 21
-215.8999
 31
0.0
  0
LINE
  8
0
 10
1080.312
 20
-215.8999
 30
0.0
 11
1188.263
 21
-323.8505
 31
0.0
  0
ARC
  8
0
 10
1064.368
 20
-451.1681
 30
0.0
 40
177.653
 50
6.259185
 51
45.78063
  0
ARC
  8
0
 10
1064.368
 20
-412.4277
 30
0.0
 40
177.653
 50
314.2186
 51
353.7401
  0
LINE
  8
0
 10
1188.263
 20
-539.7491
 30
0.0
 11
1080.312
 21
-647.6996
 31
0.0
  0
LINE
  8
0
 10
1080.312
 20
-647.6996
 30
0.0
 11
995.3105
 21
-731.8494
 31
0.0
  0
ARC
  8
0
 10
941.2632
 20
-661.7791
 30
0.0
 40
88.49293
 50
232.0753
 51
307.6446
  0
LINE
  8
0
 10
886.8731
 20
-731.584
 30
0.0
 11
806.6116
 21
-650.9223
 31
0.0
  0
LINE
  8
0
 10
806.6116
 20
-650.9223
 30
0.0
 11
726.3499
 21
-570.2604
 31
0.0
  0
LINE
  8
0
 10
726.3499
 20
-570.2604
 30
0.0
 11
645.2886
 21
-489.5993
 31
0.0
  0
ARC
  8
0
 10
712.0712
 20
-418.09
 30
0.0
 40
97.84413
 50
188.0545
 51
226.9578
  0
ARC
  8
0
 10
712.0709
 20
-445.5096
 30
0.0
 40
97.84413
 50
133.0419
 51
171.9452
  0
LINE
  8
0
 10
645.2892
 20
-373.9996
 30
0.0
 11
726.3505
 21
-293.3385
 31
0.0
  0
LINE
  8
0
 10
726.3505
 20
-293.3385
 30
0.0
 11
806.6121
 21
-212.6768
 31
0.0
  0
ARC
  8
0
 10
878.1218
 20
-279.4587
 30
0.0
 40
97.84413
 50
98.05481
 51
136.9581
  0
ARC
  8
0
 10
850.7023
 20
-279.4588
 30
0.0
 40
97.84413
 50
43.04226
 51
81.94552
  0
LINE
  8
0
 10
922.2106
 20
-212.6764
 30
0.0
 11
1002.473
 21
-293.3376
 31
0.0
  0
LINE
  8
0
 10
1002.473
 20
-293.3376
 30
0.0
 11
1083.534
 21
-373.9982
 31
0.0
  0
ARC
  8
0
 10
1016.753
 20
-445.5096
 30
0.0
 40
97.84413
 50
8.054911
 51
46.95819
  0
ARC
  8
0
 10
1016.753
 20
-418.09
 30
0.0
 40
97.84413
 50
313.0423
 51
351.9456
  0
LINE
  8
0
 10
1083.534
 20
-489.6013
 30
0.0
 11
1002.473
 21
-570.2619
 31
0.0
  0
LINE
  8
0
 10
1002.473
 20
-570.2619
 30
0.0
 11
922.2106
 21
-650.9231
 31
0.0
  0
LINE
  8
0
 10
922.2099
 20
-650.9247
 30
0.0
 11
841.1481
 21
-731.5853
 31
0.0
  0
ARC
  8
0
 10
788.0121
 20
-669.7884
 30
0.0
 40
81.50015
 50
233.4372
 51
310.6913
  0
LINE
  8
0
 10
739.4619
 20
-735.2496
 30
0.0
 11
648.5121
 21
-647.6996
 31
0.0
  0
LINE
  8
0
 10
648.5121
 20
-647.6996
 30
0.0
 11
540.5616
 21
-539.7488
 31
0.0
  0
ARC
  8
0
 10
413.2402
 20
-663.6434
 30
0.0
 40
177.653
 50
44.21854
 51
83.73997
  0
ARC
  8
0
 10
451.9802
 20
-663.6437
 30
0.0
 40
177.653
 50
96.2591
 51
135.7806
  0
LINE
  8
0
 10
324.6626
 20
-539.7488
 30
0.0
 11
216.7119
 21
-647.6997
 31
0.0
  0
LINE
  8
0
 10
216.7119
 20
-647.6997
 30
0.0
 11
108.7611
 21
-755.6503
 31
0.0
  0
ARC
  8
0
 10
232.6559
 20
-882.9679
 30
0.0
 40
177.653
 50
134.2195
 51
173.7409
  0
CIRCLE
  8
0
 10
1000
 20
7000
 30
0.0
 40
100
  0
CIRCLE
  8
0
 10
3000
 20
7000
 30
0.0
 40
100
  0
CIRCLE
  8
0
 10
5000
 20
7000
 30
0.0
 40
100
  0
CIRCLE
  8
0
 10
100
 20
100
 30
0.0
 40
125
  0
CIRCLE
  8
0
 10
200
 20
200
 30
0.0
 40
200
  0
CIRCLE
  8
0
 10
300
 20
300
 30
0.0
 40
200
  0
CIRCLE
  8
0
 10
350
 20
350
 30
0.0
 40
200
  0
CIRCLE
  8
0
 10
360
 20
360
 30
0.0
 40
200
  0
CIRCLE
  8
0
 10
370
 20
370
 30
0.0
 40
200
  0
ENDSEC
  0
EOF
