  0
SECTION
  2
ENTITIES
  0
ARC
  8
0
 10
-500.1451
 20
420.7162
 30
0.0
 40
755.1913
 50
326.1446
 51
356.9855
  0
ARC
  8
0
 10
754.1414
 20
-420.722
 30
0.0
 40
755.1913
 50
146.1443
 51
176.9852
  0
ARC
  8
0
 10
754.1414
 20
-341.2819
 30
0.0
 40
755.1913
 50
183.015
 51
213.8559
  0
ARC
  8
0
 10
-500.1451
 20
-1182.72
 30
0.0
 40
755.1913
 50
3.014782
 51
33.85571
  0
CIRCLE
  8
0
 10
1000
 20
7000
 30
0.0
 40
100
  0
CIRCLE
  8
0
 10
2000
 20
8000
 30
0.0
 40
100
  0
CIRCLE
  8
0
 10
3000
 20
7000
 30
0.0
 40
100
  0
CIRCLE
  8
0
 10
100
 20
100
 30
0.0
 40
125
  0
CIRCLE
  8
0
 10
200
 20
200
 30
0.0
 40
200
  0
CIRCLE
  8
0
 10
300
 20
300
 30
0.0
 40
200
  0
CIRCLE
  8
0
 10
350
 20
350
 30
0.0
 40
200
  0
CIRCLE
  8
0
 10
360
 20
360
 30
0.0
 40
200
  0
CIRCLE
  8
0
 10
370
 20
370
 30
0.0
 40
200
  0
ENDSEC
  0
EOF
