  0
SECTION
  2
ENTITIES
  0
LINE
  8
0
 10
-494.8951
 20
698.5
 30
0.0
 11
-139.2951
 21
342.9
 31
0.0
  0
LINE
  8
0
 10
-139.2951
 20
342.9
 30
0.0
 11
-494.8951
 21
698.5
 31
0.0
  0
LINE
  8
0
 10
-494.8951
 20
698.5
 30
0.0
 11
-346.6019
 21
698.5
 31
0.0
  0
LINE
  8
0
 10
-346.602
 20
698.5
 30
0.0
 11
8.998086
 21
342.9
 31
0.0
  0
LINE
  8
0
 10
8.998086
 20
342.9
 30
0.0
 11
364.5981
 21
698.5
 31
0.0
  0
LINE
  8
0
 10
364.5981
 20
698.5
 30
0.0
 11
512.8913
 21
698.5
 31
0.0
  0
LINE
  8
0
 10
512.8913
 20
698.5
 30
0.0
 11
157.2913
 21
342.9
 31
0.0
  0
LINE
  8
0
 10
157.2913
 20
342.9
 30
0.0
 11
512.8913
 21
-12.69999
 31
0.0
  0
LINE
  8
0
 10
512.8913
 20
-12.69999
 30
0.0
 11
364.5981
 21
-12.69999
 31
0.0
  0
LINE
  8
0
 10
364.5981
 20
-12.69999
 30
0.0
 11
8.998086
 21
342.9
 31
0.0
  0
LINE
  8
0
 10
8.998086
 20
342.9
 30
0.0
 11
-346.602
 21
-12.69999
 31
0.0
  0
LINE
  8
0
 10
-346.602
 20
-12.69999
 30
0.0
 11
-494.8951
 21
-12.69999
 31
0.0
  0
LINE
  8
0
 10
-494.8951
 20
-12.69999
 30
0.0
 11
-139.2951
 21
342.9
 31
0.0
  0
LINE
  8
0
 10
-139.2951
 20
342.9
 30
0.0
 11
-494.8951
 21
-12.69999
 31
0.0
  0
CIRCLE
  8
0
 10
1000
 20
7000
 30
0.0
 40
100
  0
CIRCLE
  8
0
 10
3000
 20
7000
 30
0.0
 40
100
  0
CIRCLE
  8
0
 10
100
 20
100
 30
0.0
 40
125
  0
CIRCLE
  8
0
 10
200
 20
200
 30
0.0
 40
200
  0
CIRCLE
  8
0
 10
300
 20
300
 30
0.0
 40
200
  0
CIRCLE
  8
0
 10
350
 20
350
 30
0.0
 40
200
  0
CIRCLE
  8
0
 10
360
 20
360
 30
0.0
 40
200
  0
CIRCLE
  8
0
 10
370
 20
370
 30
0.0
 40
200
  0
ENDSEC
  0
EOF
