  0
SECTION
  2
ENTITIES
  0
LINE
  8
0
 10
635
 20
7.629395E-06
 30
0.0
 11
492.1927
 21
-190.4435
 31
0.0
  0
LINE
  8
0
 10
492.1927
 20
-190.4435
 30
0.0
 11
873.1927
 21
-698.4435
 31
0.0
  0
LINE
  8
0
 10
873.1927
 20
-698.4435
 30
0.0
 11
777.8073
 21
-825.5565
 31
0.0
  0
LINE
  8
0
 10
777.8073
 20
-825.5565
 30
0.0
 11
396.8073
 21
-317.5565
 31
0.0
  0
LINE
  8
0
 10
396.8073
 20
-317.5565
 30
0.0
 11
254
 21
-508
 31
0.0
  0
LINE
  8
0
 10
254
 20
-508
 30
0.0
 11
635
 21
-1016
 31
0.0
  0
LINE
  8
0
 10
635
 20
-1016
 30
0.0
 11
777.8073
 21
-1206.443
 31
0.0
  0
LINE
  8
0
 10
777.8073
 20
-1206.443
 30
0.0
 11
873.1927
 21
-1333.557
 31
0.0
  0
LINE
  8
0
 10
873.1927
 20
-1333.557
 30
0.0
 11
1016
 21
-1524
 31
0.0
  0
LINE
  8
0
 10
1016
 20
-1524
 30
0.0
 11
1397
 21
-1016
 31
0.0
  0
LINE
  8
0
 10
1397
 20
-1016
 30
0.0
 11
1254.193
 21
-825.5565
 31
0.0
  0
LINE
  8
0
 10
1254.193
 20
-825.5565
 30
0.0
 11
873.1927
 21
-1333.557
 31
0.0
  0
LINE
  8
0
 10
873.1927
 20
-1333.557
 30
0.0
 11
777.8073
 21
-1206.443
 31
0.0
  0
LINE
  8
0
 10
777.8073
 20
-1206.443
 30
0.0
 11
1158.807
 21
-698.4435
 31
0.0
  0
LINE
  8
0
 10
1158.807
 20
-698.4435
 30
0.0
 11
1016
 21
-508
 31
0.0
  0
LINE
  8
0
 10
1016
 20
-508
 30
0.0
 11
873.1927
 21
-698.4435
 31
0.0
  0
LINE
  8
0
 10
873.1927
 20
-698.4435
 30
0.0
 11
777.8073
 21
-825.5565
 31
0.0
  0
LINE
  8
0
 10
777.8073
 20
-825.5565
 30
0.0
 11
635
 21
-1016
 31
0.0
  0
CIRCLE
  8
0
 10
1000
 20
7000
 30
0.0
 40
100
  0
CIRCLE
  8
0
 10
2500
 20
7000
 30
0.0
 40
100
  0
CIRCLE
  8
0
 10
4000
 20
7000
 30
0.0
 40
100
  0
CIRCLE
  8
0
 10
100
 20
100
 30
0.0
 40
128
  0
CIRCLE
  8
0
 10
200
 20
200
 30
0.0
 40
200
  0
CIRCLE
  8
0
 10
300
 20
300
 30
0.0
 40
200
  0
CIRCLE
  8
0
 10
350
 20
350
 30
0.0
 40
200
  0
CIRCLE
  8
0
 10
360
 20
360
 30
0.0
 40
200
  0
CIRCLE
  8
0
 10
370
 20
370
 30
0.0
 40
200
  0
ENDSEC
  0
EOF
