  0
SECTION
  2
ENTITIES
  0
ARC
  8
0
 10
-206.905
 20
401.1332
 30
0.0
 40
461.3462
 50
318.7589
 51
357.4987
  0
LINE
  8
0
 10
139.9994
 20
96.99882
 30
0.0
 11
-13.00357
 21
-97.0041
 31
0.0
  0
ARC
  8
0
 10
333.9005
 20
-401.1387
 30
0.0
 40
461.3462
 50
138.7587
 51
177.4985
  0
ARC
  8
0
 10
333.9006
 20
-360.8682
 30
0.0
 40
461.3462
 50
182.5012
 51
221.2411
  0
LINE
  8
0
 10
-13.00548
 20
-665.0005
 30
0.0
 11
139.9961
 21
-859.0045
 31
0.0
  0
ARC
  8
0
 10
-206.9102
 20
-1163.136
 30
0.0
 40
461.3462
 50
2.501206
 51
41.24101
  0
CIRCLE
  8
0
 10
1000
 20
7000
 30
0.0
 40
100
  0
CIRCLE
  8
0
 10
1500
 20
7000
 30
0.0
 40
100
  0
CIRCLE
  8
0
 10
2500
 20
7000
 30
0.0
 40
100
  0
CIRCLE
  8
0
 10
3000
 20
7000
 30
0.0
 40
100
  0
CIRCLE
  8
0
 10
4000
 20
7000
 30
0.0
 40
100
  0
CIRCLE
  8
0
 10
100
 20
100
 30
0.0
 40
125
  0
CIRCLE
  8
0
 10
200
 20
200
 30
0.0
 40
200
  0
CIRCLE
  8
0
 10
300
 20
300
 30
0.0
 40
200
  0
CIRCLE
  8
0
 10
350
 20
350
 30
0.0
 40
200
  0
CIRCLE
  8
0
 10
360
 20
360
 30
0.0
 40
200
  0
CIRCLE
  8
0
 10
370
 20
370
 30
0.0
 40
200
  0
ENDSEC
  0
EOF
