  0
SECTION
  2
ENTITIES
  0
LINE
  8
0
 10
0
 20
909.5538
 30
0.0
 11
0
 21
284.6499
 31
0.0
  0
LINE
  8
0
 10
0
 20
284.6499
 30
0.0
 11
239.137
 21
525.3193
 31
0.0
  0
LINE
  8
0
 10
239.137
 20
525.3193
 30
0.0
 11
239.137
 21
160.5622
 31
0.0
  0
LINE
  8
0
 10
239.137
 20
160.5622
 30
0.0
 11
478.2739
 21
399.3557
 31
0.0
  0
LINE
  8
0
 10
478.2739
 20
399.3557
 30
0.0
 11
478.2739
 21
-37.89817
 31
0.0
  0
LINE
  8
0
 10
478.2739
 20
-37.89817
 30
0.0
 11
478.2739
 21
-475.1521
 31
0.0
  0
LINE
  8
0
 10
478.2739
 20
-475.1521
 30
0.0
 11
239.137
 21
-236.3585
 31
0.0
  0
LINE
  8
0
 10
239.137
 20
-236.3585
 30
0.0
 11
239.137
 21
-601.1157
 31
0.0
  0
LINE
  8
0
 10
239.137
 20
-601.1157
 30
0.0
 11
-239.137
 21
-37.89817
 31
0.0
  0
LINE
  8
0
 10
-239.137
 20
-37.89817
 30
0.0
 11
0
 21
201.2388
 31
0.0
  0
LINE
  8
0
 10
0
 20
201.2388
 30
0.0
 11
239.137
 21
-37.89817
 31
0.0
  0
LINE
  8
0
 10
239.137
 20
-37.89817
 30
0.0
 11
-10.20787
 21
-288.1586
 31
0.0
  0
LINE
  8
0
 10
-10.20787
 20
-288.1586
 30
0.0
 11
-10.20787
 21
299.1111
 31
0.0
  0
LINE
  8
0
 10
-10.20787
 20
299.1111
 30
0.0
 11
-239.137
 21
525.3193
 31
0.0
  0
LINE
  8
0
 10
-239.137
 20
525.3193
 30
0.0
 11
-239.137
 21
160.5622
 31
0.0
  0
LINE
  8
0
 10
-239.137
 20
160.5622
 30
0.0
 11
-478.2739
 21
399.3557
 31
0.0
  0
LINE
  8
0
 10
-478.2739
 20
399.3557
 30
0.0
 11
-478.2739
 21
-37.89817
 31
0.0
  0
LINE
  8
0
 10
-478.2739
 20
-37.89817
 30
0.0
 11
-478.2739
 21
-475.1521
 31
0.0
  0
LINE
  8
0
 10
-478.2739
 20
-475.1521
 30
0.0
 11
-239.137
 21
-236.3585
 31
0.0
  0
LINE
  8
0
 10
-239.137
 20
-236.3585
 30
0.0
 11
-239.137
 21
-601.1157
 31
0.0
  0
LINE
  8
0
 10
-239.137
 20
-601.1157
 30
0.0
 11
0
 21
-360.4462
 31
0.0
  0
CIRCLE
  8
0
 10
1000
 20
7000
 30
0.0
 40
100
  0
CIRCLE
  8
0
 10
3000
 20
7000
 30
0.0
 40
100
  0
CIRCLE
  8
0
 10
5000
 20
7000
 30
0.0
 40
100
  0
CIRCLE
  8
0
 10
100
 20
100
 30
0.0
 40
125
  0
CIRCLE
  8
0
 10
200
 20
200
 30
0.0
 40
200
  0
CIRCLE
  8
0
 10
300
 20
300
 30
0.0
 40
200
  0
CIRCLE
  8
0
 10
350
 20
350
 30
0.0
 40
200
  0
CIRCLE
  8
0
 10
360
 20
360
 30
0.0
 40
200
  0
CIRCLE
  8
0
 10
370
 20
370
 30
0.0
 40
200
  0
ENDSEC
  0
EOF
