  0
SECTION
  2
ENTITIES
  0
LINE
  8
0
 10
1025.523
 20
-2.002717E-05
 30
0.0
 11
1195.704
 21
-292.1
 31
0.0
  0
LINE
  8
0
 10
1195.704
 20
-292.1
 30
0.0
 11
1025.523
 21
-584.2001
 31
0.0
  0
LINE
  8
0
 10
1025.523
 20
-584.2001
 30
0.0
 11
1195.704
 21
-292.1
 31
0.0
  0
LINE
  8
0
 10
1195.704
 20
-292.1
 30
0.0
 11
1536.064
 21
-292.1
 31
0.0
  0
LINE
  8
0
 10
1536.064
 20
-292.0995
 30
0.0
 11
1706.246
 21
5.598069E-04
 31
0.0
  0
LINE
  8
0
 10
1706.246
 20
5.598069E-04
 30
0.0
 11
2046.608
 21
5.598069E-04
 31
0.0
  0
LINE
  8
0
 10
2046.608
 20
5.598069E-04
 30
0.0
 11
2386.969
 21
5.598069E-04
 31
0.0
  0
LINE
  8
0
 10
2386.969
 20
5.598069E-04
 30
0.0
 11
2557.15
 21
-292.0995
 31
0.0
  0
LINE
  8
0
 10
2557.15
 20
-292.1
 30
0.0
 11
2897.51
 21
-292.1
 31
0.0
  0
LINE
  8
0
 10
2897.51
 20
-292.1
 30
0.0
 11
3067.691
 21
-2.002717E-05
 31
0.0
  0
LINE
  8
0
 10
3067.691
 20
-2.002717E-05
 30
0.0
 11
2897.51
 21
-292.1
 31
0.0
  0
LINE
  8
0
 10
2897.51
 20
-292.1
 30
0.0
 11
3067.691
 21
-584.2001
 31
0.0
  0
LINE
  8
0
 10
3067.691
 20
-584.2001
 30
0.0
 11
2727.331
 21
-584.2001
 31
0.0
  0
LINE
  8
0
 10
2727.331
 20
-584.1995
 30
0.0
 11
2557.15
 21
-292.0995
 31
0.0
  0
LINE
  8
0
 10
2557.15
 20
-292.0995
 30
0.0
 11
2216.79
 21
-292.0995
 31
0.0
  0
LINE
  8
0
 10
2216.79
 20
-292.0995
 30
0.0
 11
2046.608
 21
-584.1995
 31
0.0
  0
LINE
  8
0
 10
2046.608
 20
-584.1995
 30
0.0
 11
2216.79
 21
-292.0995
 31
0.0
  0
LINE
  8
0
 10
2216.79
 20
-292.0995
 30
0.0
 11
2046.608
 21
5.598069E-04
 31
0.0
  0
LINE
  8
0
 10
2046.608
 20
5.598069E-04
 30
0.0
 11
1876.426
 21
-292.0995
 31
0.0
  0
LINE
  8
0
 10
1876.426
 20
-292.0995
 30
0.0
 11
2046.608
 21
-584.1995
 31
0.0
  0
LINE
  8
0
 10
2046.608
 20
-584.1995
 30
0.0
 11
1876.426
 21
-292.0995
 31
0.0
  0
LINE
  8
0
 10
1876.426
 20
-292.0995
 30
0.0
 11
1536.064
 21
-292.0995
 31
0.0
  0
LINE
  8
0
 10
1536.064
 20
-292.0995
 30
0.0
 11
1365.884
 21
-584.1995
 31
0.0
  0
LINE
  8
0
 10
1365.884
 20
-584.2001
 30
0.0
 11
1025.523
 21
-584.2001
 31
0.0
  0
LINE
  8
0
 10
1025.523
 20
-584.2001
 30
0.0
 11
1195.704
 21
-876.3
 31
0.0
  0
LINE
  8
0
 10
1195.704
 20
-876.3002
 30
0.0
 11
1536.064
 21
-876.3007
 31
0.0
  0
LINE
  8
0
 10
1536.064
 20
-876.3007
 30
0.0
 11
1365.884
 21
-584.2001
 31
0.0
  0
LINE
  8
0
 10
1365.884
 20
-584.2001
 30
0.0
 11
1536.064
 21
-876.3007
 31
0.0
  0
LINE
  8
0
 10
1536.064
 20
-876.2993
 30
0.0
 11
1876.426
 21
-876.2993
 31
0.0
  0
LINE
  8
0
 10
1876.426
 20
-876.2993
 30
0.0
 11
2046.608
 21
-584.1995
 31
0.0
  0
LINE
  8
0
 10
2046.608
 20
-584.1995
 30
0.0
 11
2216.79
 21
-876.2993
 31
0.0
  0
LINE
  8
0
 10
2216.79
 20
-876.2993
 30
0.0
 11
2557.15
 21
-876.2993
 31
0.0
  0
LINE
  8
0
 10
2557.15
 20
-876.3007
 30
0.0
 11
2897.51
 21
-876.3002
 31
0.0
  0
LINE
  8
0
 10
2897.511
 20
-876.2996
 30
0.0
 11
3067.691
 21
-1168.4
 31
0.0
  0
LINE
  8
0
 10
3067.691
 20
-1168.4
 30
0.0
 11
2897.511
 21
-876.2996
 31
0.0
  0
LINE
  8
0
 10
2897.51
 20
-876.3
 30
0.0
 11
3067.691
 21
-584.2001
 31
0.0
  0
LINE
  8
0
 10
3067.691
 20
-584.2001
 30
0.0
 11
2897.51
 21
-876.3
 31
0.0
  0
LINE
  8
0
 10
2897.51
 20
-876.3002
 30
0.0
 11
2557.15
 21
-876.3007
 31
0.0
  0
LINE
  8
0
 10
2557.15
 20
-876.3007
 30
0.0
 11
2727.331
 21
-584.2001
 31
0.0
  0
LINE
  8
0
 10
2727.331
 20
-584.2001
 30
0.0
 11
2557.15
 21
-876.3007
 31
0.0
  0
LINE
  8
0
 10
2557.15
 20
-876.2993
 30
0.0
 11
2386.969
 21
-1168.399
 31
0.0
  0
LINE
  8
0
 10
2386.969
 20
-1168.399
 30
0.0
 11
2557.15
 21
-876.2993
 31
0.0
  0
LINE
  8
0
 10
2557.15
 20
-876.2993
 30
0.0
 11
2216.79
 21
-876.2993
 31
0.0
  0
LINE
  8
0
 10
2216.79
 20
-876.2993
 30
0.0
 11
2046.608
 21
-1168.399
 31
0.0
  0
LINE
  8
0
 10
2046.608
 20
-1168.399
 30
0.0
 11
1876.426
 21
-876.2993
 31
0.0
  0
LINE
  8
0
 10
1876.426
 20
-876.2993
 30
0.0
 11
1536.064
 21
-876.2993
 31
0.0
  0
LINE
  8
0
 10
1536.064
 20
-876.2993
 30
0.0
 11
1706.246
 21
-1168.399
 31
0.0
  0
LINE
  8
0
 10
1706.246
 20
-1168.399
 30
0.0
 11
1536.064
 21
-876.2993
 31
0.0
  0
LINE
  8
0
 10
1536.064
 20
-876.3007
 30
0.0
 11
1195.704
 21
-876.3002
 31
0.0
  0
LINE
  8
0
 10
1195.703
 20
-876.2996
 30
0.0
 11
1025.523
 21
-1168.4
 31
0.0
  0
CIRCLE
  8
0
 10
1000
 20
7000
 30
0.0
 40
100
  0
CIRCLE
  8
0
 10
5000
 20
7000
 30
0.0
 40
100
  0
CIRCLE
  8
0
 10
9000
 20
7000
 30
0.0
 40
100
  0
CIRCLE
  8
0
 10
100
 20
100
 30
0.0
 40
125
  0
CIRCLE
  8
0
 10
200
 20
200
 30
0.0
 40
200
  0
CIRCLE
  8
0
 10
300
 20
300
 30
0.0
 40
200
  0
CIRCLE
  8
0
 10
350
 20
350
 30
0.0
 40
200
  0
CIRCLE
  8
0
 10
360
 20
360
 30
0.0
 40
200
  0
CIRCLE
  8
0
 10
370
 20
370
 30
0.0
 40
200
  0
ENDSEC
  0
EOF
