  0
SECTION
  2
ENTITIES
  0
LINE
  8
0
 10
-473.9708
 20
430.7868
 30
0.0
 11
-473.9708
 21
146.8916
 31
0.0
  0
LINE
  8
0
 10
-473.9708
 20
146.8916
 30
0.0
 11
-427.9565
 21
146.8916
 31
0.0
  0
LINE
  8
0
 10
-427.9565
 20
146.8916
 30
0.0
 11
-427.9565
 21
430.7868
 31
0.0
  0
LINE
  8
0
 10
-427.9565
 20
430.7868
 30
0.0
 11
-427.9565
 21
146.8916
 31
0.0
  0
LINE
  8
0
 10
-427.9565
 20
146.8916
 30
0.0
 11
-198.2491
 21
17.88552
 31
0.0
  0
LINE
  8
0
 10
-198.2491
 20
17.88552
 30
0.0
 11
31.08892
 21
147.5477
 31
0.0
  0
LINE
  8
0
 10
31.08892
 20
147.5477
 30
0.0
 11
54.19098
 21
103.3143
 31
0.0
  0
LINE
  8
0
 10
54.19098
 20
103.3143
 30
0.0
 11
-175.1471
 21
-26.34742
 31
0.0
  0
LINE
  8
0
 10
-175.1471
 20
-26.34742
 30
0.0
 11
-221.2246
 21
-26.41323
 31
0.0
  0
LINE
  8
0
 10
-221.2246
 20
-26.41323
 30
0.0
 11
-450.932
 21
102.5929
 31
0.0
  0
LINE
  8
0
 10
-450.932
 20
102.5929
 30
0.0
 11
-221.2246
 21
-26.41323
 31
0.0
  0
LINE
  8
0
 10
-221.2246
 20
-26.41323
 30
0.0
 11
-221.2246
 21
-310.3084
 31
0.0
  0
LINE
  8
0
 10
-221.2246
 20
-310.3084
 30
0.0
 11
-450.932
 21
-439.3145
 31
0.0
  0
LINE
  8
0
 10
-450.932
 20
-439.3145
 30
0.0
 11
-221.2246
 21
-310.3084
 31
0.0
  0
LINE
  8
0
 10
-221.2246
 20
-310.3084
 30
0.0
 11
-175.1471
 21
-310.2424
 31
0.0
  0
LINE
  8
0
 10
-175.2103
 20
-310.3084
 30
0.0
 11
-175.2103
 21
-26.41323
 31
0.0
  0
LINE
  8
0
 10
-175.2103
 20
-26.41323
 30
0.0
 11
-175.2103
 21
-310.3084
 31
0.0
  0
LINE
  8
0
 10
-175.1471
 20
-310.3743
 30
0.0
 11
54.19098
 21
-440.0358
 31
0.0
  0
LINE
  8
0
 10
54.19098
 20
-440.0358
 30
0.0
 11
31.08892
 21
-484.2691
 31
0.0
  0
LINE
  8
0
 10
31.08892
 20
-484.2691
 30
0.0
 11
-198.2491
 21
-354.6071
 31
0.0
  0
LINE
  8
0
 10
-198.2491
 20
-354.6071
 30
0.0
 11
-427.9565
 21
-483.6132
 31
0.0
  0
LINE
  8
0
 10
-427.9565
 20
-483.6132
 30
0.0
 11
-473.9073
 21
-483.6132
 31
0.0
  0
CIRCLE
  8
0
 10
1000
 20
7000
 30
0.0
 40
100
  0
CIRCLE
  8
0
 10
2000
 20
7000
 30
0.0
 40
100
  0
CIRCLE
  8
0
 10
3000
 20
7000
 30
0.0
 40
100
  0
CIRCLE
  8
0
 10
100
 20
100
 30
0.0
 40
125
  0
CIRCLE
  8
0
 10
200
 20
200
 30
0.0
 40
200
  0
CIRCLE
  8
0
 10
300
 20
300
 30
0.0
 40
200
  0
CIRCLE
  8
0
 10
350
 20
350
 30
0.0
 40
200
  0
CIRCLE
  8
0
 10
360
 20
360
 30
0.0
 40
200
  0
CIRCLE
  8
0
 10
370
 20
370
 30
0.0
 40
200
  0
ENDSEC
  0
EOF
