  0
SECTION
  2
ENTITIES
  0
LINE
  8
0
 10
-183.8542
 20
449.0297
 30
0.0
 11
-183.8542
 21
299.0006
 31
0.0
  0
LINE
  8
0
 10
-183.8542
 20
299.0006
 30
0.0
 11
-183.8542
 21
148.9716
 31
0.0
  0
LINE
  8
0
 10
-183.8542
 20
148.9716
 30
0.0
 11
69.97436
 21
-20.87029
 31
0.0
  0
LINE
  8
0
 10
69.97436
 20
-20.87029
 30
0.0
 11
323.8029
 21
148.9716
 31
0.0
  0
LINE
  8
0
 10
323.8029
 20
148.9716
 30
0.0
 11
69.97436
 21
-20.87029
 31
0.0
  0
LINE
  8
0
 10
69.97436
 20
-20.87029
 30
0.0
 11
69.97436
 21
-170.8994
 31
0.0
  0
LINE
  8
0
 10
69.97436
 20
-170.8994
 30
0.0
 11
69.97436
 21
-320.9284
 31
0.0
  0
LINE
  8
0
 10
69.97436
 20
-320.9284
 30
0.0
 11
323.8029
 21
-490.7703
 31
0.0
  0
LINE
  8
0
 10
323.8029
 20
-490.7703
 30
0.0
 11
69.97436
 21
-320.9284
 31
0.0
  0
LINE
  8
0
 10
69.97436
 20
-320.9284
 30
0.0
 11
-183.8542
 21
-490.7703
 31
0.0
  0
CIRCLE
  8
0
 10
1000
 20
7000
 30
0.0
 40
100
  0
CIRCLE
  8
0
 10
2000
 20
7000
 30
0.0
 40
100
  0
CIRCLE
  8
0
 10
3000
 20
7000
 30
0.0
 40
100
  0
CIRCLE
  8
0
 10
100
 20
100
 30
0.0
 40
125
  0
CIRCLE
  8
0
 10
200
 20
200
 30
0.0
 40
200
  0
CIRCLE
  8
0
 10
300
 20
300
 30
0.0
 40
200
  0
CIRCLE
  8
0
 10
350
 20
350
 30
0.0
 40
200
  0
CIRCLE
  8
0
 10
360
 20
360
 30
0.0
 40
200
  0
CIRCLE
  8
0
 10
370
 20
370
 30
0.0
 40
200
  0
ENDSEC
  0
EOF
