  0
SECTION
  2
ENTITIES
  0
ARC
  8
0
 10
-551.1774
 20
778.7257
 30
0.0
 40
425.3106
 50
315.3773
 51
357.7446
  0
LINE
  8
0
 10
-248.4645
 20
479.9716
 30
0.0
 11
-437.9992
 21
282.0008
 31
0.0
  0
ARC
  8
0
 10
-135.2872
 20
-16.75417
 30
0.0
 40
425.3106
 50
135.377
 51
177.7443
  0
ARC
  8
0
 10
-135.2871
 20
16.72577
 30
0.0
 40
425.3106
 50
182.2556
 51
224.6228
  0
LINE
  8
0
 10
-437.9994
 20
-282.0291
 30
0.0
 11
-248.4647
 21
-479.9999
 31
0.0
  0
ARC
  8
0
 10
-551.1776
 20
-778.754
 30
0.0
 40
425.3106
 50
2.255682
 51
44.62292
  0
CIRCLE
  8
0
 10
1000
 20
7000
 30
0.0
 40
100
  0
CIRCLE
  8
0
 10
2500
 20
8000
 30
0.0
 40
100
  0
CIRCLE
  8
0
 10
4000
 20
7000
 30
0.0
 40
100
  0
CIRCLE
  8
0
 10
100
 20
100
 30
0.0
 40
126
  0
CIRCLE
  8
0
 10
200
 20
200
 30
0.0
 40
200
  0
CIRCLE
  8
0
 10
300
 20
300
 30
0.0
 40
200
  0
CIRCLE
  8
0
 10
350
 20
350
 30
0.0
 40
200
  0
CIRCLE
  8
0
 10
360
 20
360
 30
0.0
 40
200
  0
CIRCLE
  8
0
 10
370
 20
370
 30
0.0
 40
200
  0
ENDSEC
  0
EOF
