  0
SECTION
  2
ENTITIES
  0
LINE
  8
0
 10
487.3781
 20
528.6218
 30
0.0
 11
19.01297
 21
60.25669
 31
0.0
  0
LINE
  8
0
 10
19.01297
 20
60.25669
 30
0.0
 11
36.46476
 21
42.25223
 31
0.0
  0
LINE
  8
0
 10
36.46471
 20
42.25216
 30
0.0
 11
504.8298
 21
510.6173
 31
0.0
  0
LINE
  8
0
 10
504.8298
 20
510.6173
 30
0.0
 11
524.6473
 21
530.4348
 31
0.0
  0
LINE
  8
0
 10
524.6473
 20
530.4348
 30
0.0
 11
546.8303
 21
508.8045
 31
0.0
  0
LINE
  8
0
 10
546.8303
 20
508.8045
 30
0.0
 11
527.0129
 21
488.9871
 31
0.0
  0
LINE
  8
0
 10
527.0129
 20
488.9871
 30
0.0
 11
58.64775
 21
20.62191
 31
0.0
  0
LINE
  8
0
 10
58.64775
 20
20.62191
 30
0.0
 11
19.01297
 21
-19.01287
 31
0.0
  0
LINE
  8
0
 10
19.01297
 20
-19.01287
 30
0.0
 11
58.64775
 21
20.62191
 31
0.0
  0
LINE
  8
0
 10
58.64775
 20
20.62191
 30
0.0
 11
527.0129
 21
488.9871
 31
0.0
  0
LINE
  8
0
 10
527.0129
 20
488.9871
 30
0.0
 11
487.3781
 21
528.6218
 31
0.0
  0
LINE
  8
0
 10
487.3781
 20
528.6218
 30
0.0
 11
527.0129
 21
488.9871
 31
0.0
  0
LINE
  8
0
 10
527.0129
 20
488.9871
 30
0.0
 11
995.3782
 21
20.62191
 31
0.0
  0
LINE
  8
0
 10
995.3782
 20
20.62191
 30
0.0
 11
1015.196
 21
40.4393
 31
0.0
  0
LINE
  8
0
 10
1015.196
 20
40.4393
 30
0.0
 11
1035.013
 21
60.25669
 31
0.0
  0
LINE
  8
0
 10
1035.013
 20
60.25669
 30
0.0
 11
566.6476
 21
528.6218
 31
0.0
  0
LINE
  8
0
 10
566.6476
 20
528.6218
 30
0.0
 11
546.8303
 21
508.8045
 31
0.0
  0
LINE
  8
0
 10
546.8303
 20
508.8045
 30
0.0
 11
1015.196
 21
40.4393
 31
0.0
  0
LINE
  8
0
 10
1015.196
 20
40.4393
 30
0.0
 11
1035.013
 21
20.62191
 31
0.0
  0
LINE
  8
0
 10
1035.013
 20
20.62191
 30
0.0
 11
1015.196
 21
.8045389
 31
0.0
  0
LINE
  8
0
 10
1015.196
 20
.8045389
 30
0.0
 11
546.8303
 21
-467.5608
 31
0.0
  0
LINE
  8
0
 10
546.8303
 20
-467.5608
 30
0.0
 11
566.6476
 21
-487.3782
 31
0.0
  0
LINE
  8
0
 10
566.6476
 20
-487.3782
 30
0.0
 11
1035.013
 21
-19.01287
 31
0.0
  0
LINE
  8
0
 10
1035.013
 20
-19.01287
 30
0.0
 11
1015.196
 21
.8045389
 31
0.0
  0
LINE
  8
0
 10
1015.196
 20
.8045389
 30
0.0
 11
995.3782
 21
20.62191
 31
0.0
  0
LINE
  8
0
 10
995.3782
 20
20.62191
 30
0.0
 11
527.0129
 21
-447.7434
 31
0.0
  0
LINE
  8
0
 10
527.0129
 20
-447.7434
 30
0.0
 11
58.64775
 21
20.62191
 31
0.0
  0
LINE
  8
0
 10
58.64775
 20
20.62191
 30
0.0
 11
36.46476
 21
42.25223
 31
0.0
  0
LINE
  8
0
 10
36.46476
 20
42.25223
 30
0.0
 11
16.6475
 21
22.43491
 31
0.0
  0
LINE
  8
0
 10
16.6475
 20
22.43491
 30
0.0
 11
38.83054
 21
.8046617
 31
0.0
  0
LINE
  8
0
 10
38.83054
 20
.8046617
 30
0.0
 11
507.1962
 21
-467.5605
 31
0.0
  0
LINE
  8
0
 10
507.1962
 20
-467.5605
 30
0.0
 11
527.0137
 21
-487.3779
 31
0.0
  0
LINE
  8
0
 10
527.0129
 20
-487.3781
 30
0.0
 11
546.8303
 21
-467.5608
 31
0.0
  0
LINE
  8
0
 10
546.8303
 20
-467.5608
 30
0.0
 11
527.0129
 21
-447.7434
 31
0.0
  0
LINE
  8
0
 10
527.0129
 20
-447.7434
 30
0.0
 11
507.1955
 21
-467.5608
 31
0.0
  0
LINE
  8
0
 10
507.1955
 20
-467.5608
 30
0.0
 11
487.3781
 21
-487.3782
 31
0.0
  0
LINE
  8
0
 10
487.3781
 20
-487.3782
 30
0.0
 11
19.01297
 21
-19.01287
 31
0.0
  0
LINE
  8
0
 10
19.01297
 20
-19.01287
 30
0.0
 11
487.3781
 21
-487.3782
 31
0.0
  0
CIRCLE
  8
0
 10
1000
 20
7000
 30
0.0
 40
100
  0
CIRCLE
  8
0
 10
3000
 20
7000
 30
0.0
 40
100
  0
CIRCLE
  8
0
 10
5000
 20
7000
 30
0.0
 40
100
  0
CIRCLE
  8
0
 10
100
 20
100
 30
0.0
 40
128
  0
CIRCLE
  8
0
 10
200
 20
200
 30
0.0
 40
200
  0
CIRCLE
  8
0
 10
300
 20
300
 30
0.0
 40
200
  0
CIRCLE
  8
0
 10
350
 20
350
 30
0.0
 40
200
  0
CIRCLE
  8
0
 10
360
 20
360
 30
0.0
 40
200
  0
CIRCLE
  8
0
 10
370
 20
370
 30
0.0
 40
200
  0
ENDSEC
  0
EOF
