  0
SECTION
  2
ENTITIES
  0
LINE
  8
0
 10
571.4999
 20
824.6357
 30
0.0
 11
1.520688E-05
 21
253.1358
 31
0.0
  0
LINE
  8
0
 10
1.520688E-05
 20
253.1358
 30
0.0
 11
253.1358
 21
253.1358
 31
0.0
  0
LINE
  8
0
 10
253.1358
 20
253.1358
 30
0.0
 11
379.7038
 21
253.1358
 31
0.0
  0
LINE
  8
0
 10
379.7038
 20
253.1358
 30
0.0
 11
506.2717
 21
253.1358
 31
0.0
  0
LINE
  8
0
 10
506.2717
 20
253.1358
 30
0.0
 11
632.8396
 21
253.1358
 31
0.0
  0
LINE
  8
0
 10
632.8396
 20
253.1358
 30
0.0
 11
759.4075
 21
253.1358
 31
0.0
  0
LINE
  8
0
 10
759.4075
 20
253.1358
 30
0.0
 11
1330.907
 21
-318.3642
 31
0.0
  0
LINE
  8
0
 10
1330.907
 20
-318.3642
 30
0.0
 11
571.4998
 21
-318.3642
 31
0.0
  0
CIRCLE
  8
0
 10
1000
 20
7000
 30
0.0
 40
100
  0
CIRCLE
  8
0
 10
2500
 20
7000
 30
0.0
 40
100
  0
CIRCLE
  8
0
 10
4000
 20
7000
 30
0.0
 40
100
  0
CIRCLE
  8
0
 10
100
 20
100
 30
0.0
 40
128
  0
CIRCLE
  8
0
 10
200
 20
200
 30
0.0
 40
200
  0
CIRCLE
  8
0
 10
300
 20
300
 30
0.0
 40
200
  0
CIRCLE
  8
0
 10
350
 20
350
 30
0.0
 40
200
  0
CIRCLE
  8
0
 10
360
 20
360
 30
0.0
 40
200
  0
CIRCLE
  8
0
 10
370
 20
370
 30
0.0
 40
200
  0
ENDSEC
  0
EOF
