  0
SECTION
  2
ENTITIES
  0
LINE
  8
0
 10
381
 20
381
 30
0.0
 11
25.52729
 21
25.2261
 31
0.0
  0
LINE
  8
0
 10
25.52729
 20
25.2261
 30
0.0
 11
5.722046E-06
 21
5.722046E-06
 31
0.0
  0
LINE
  8
0
 10
5.722046E-06
 20
5.722046E-06
 30
0.0
 11
-25.52728
 21
25.2261
 31
0.0
  0
LINE
  8
0
 10
-25.52728
 20
25.2261
 30
0.0
 11
25.52729
 21
25.2261
 31
0.0
  0
LINE
  8
0
 10
25.52729
 20
25.2261
 30
0.0
 11
736.4727
 21
25.2261
 31
0.0
  0
LINE
  8
0
 10
736.4727
 20
25.2261
 30
0.0
 11
762
 21
5.722046E-06
 31
0.0
  0
LINE
  8
0
 10
762
 20
5.722046E-06
 30
0.0
 11
736.4727
 21
-25.22608
 31
0.0
  0
LINE
  8
0
 10
736.4727
 20
-25.22608
 30
0.0
 11
25.52729
 21
-25.22608
 31
0.0
  0
LINE
  8
0
 10
25.52729
 20
-25.22608
 30
0.0
 11
-25.52728
 21
-25.22608
 31
0.0
  0
LINE
  8
0
 10
-25.52728
 20
-25.22608
 30
0.0
 11
5.722046E-06
 21
5.722046E-06
 31
0.0
  0
LINE
  8
0
 10
5.722046E-06
 20
5.722046E-06
 30
0.0
 11
25.52729
 21
-25.22608
 31
0.0
  0
LINE
  8
0
 10
25.52729
 20
-25.22608
 30
0.0
 11
381
 21
-381
 31
0.0
  0
LINE
  8
0
 10
381
 20
-381
 30
0.0
 11
736.4727
 21
-736.7739
 31
0.0
  0
LINE
  8
0
 10
736.4727
 20
-736.7739
 30
0.0
 11
762
 21
-762
 31
0.0
  0
LINE
  8
0
 10
762
 20
-762
 30
0.0
 11
736.4727
 21
-787.2261
 31
0.0
  0
LINE
  8
0
 10
736.4727
 20
-787.2261
 30
0.0
 11
381
 21
-1143
 31
0.0
  0
CIRCLE
  8
0
 10
1000
 20
7000
 30
0.0
 40
100
  0
CIRCLE
  8
0
 10
1000
 20
8000
 30
0.0
 40
100
  0
CIRCLE
  8
0
 10
2500
 20
7000
 30
0.0
 40
100
  0
CIRCLE
  8
0
 10
2500
 20
8000
 30
0.0
 40
100
  0
CIRCLE
  8
0
 10
100
 20
100
 30
0.0
 40
125
  0
CIRCLE
  8
0
 10
200
 20
200
 30
0.0
 40
200
  0
CIRCLE
  8
0
 10
300
 20
300
 30
0.0
 40
200
  0
CIRCLE
  8
0
 10
350
 20
350
 30
0.0
 40
200
  0
CIRCLE
  8
0
 10
360
 20
360
 30
0.0
 40
200
  0
CIRCLE
  8
0
 10
370
 20
370
 30
0.0
 40
200
  0
ENDSEC
  0
EOF
