  0
SECTION
  2
ENTITIES
  0
LINE
  8
0
 10
-254
 20
508
 30
0.0
 11
0
 21
0
 31
0.0
  0
LINE
  8
0
 10
0
 20
0
 30
0.0
 11
254
 21
508
 31
0.0
  0
LINE
  8
0
 10
254
 20
508
 30
0.0
 11
338.44
 21
338.6435
 31
0.0
  0
LINE
  8
0
 10
338.44
 20
338.6435
 30
0.0
 11
84.67636
 21
-169.3217
 31
0.0
  0
LINE
  8
0
 10
84.67636
 20
-169.3217
 30
0.0
 11
169.56
 21
-338.6435
 31
0.0
  0
LINE
  8
0
 10
169.56
 20
-338.6435
 30
0.0
 11
423.3236
 21
169.3217
 31
0.0
  0
LINE
  8
0
 10
423.3236
 20
169.3217
 30
0.0
 11
338.44
 21
338.6435
 31
0.0
  0
LINE
  8
0
 10
338.44
 20
338.6435
 30
0.0
 11
423.3236
 21
169.3217
 31
0.0
  0
LINE
  8
0
 10
423.3236
 20
169.3217
 30
0.0
 11
508
 21
0
 31
0.0
  0
LINE
  8
0
 10
508
 20
0
 30
0.0
 11
762
 21
508
 31
0.0
  0
LINE
  8
0
 10
762
 20
508
 30
0.0
 11
508
 21
0
 31
0.0
  0
LINE
  8
0
 10
508
 20
0
 30
0.0
 11
762
 21
-508
 31
0.0
  0
LINE
  8
0
 10
762
 20
-508
 30
0.0
 11
508
 21
0
 31
0.0
  0
LINE
  8
0
 10
508
 20
0
 30
0.0
 11
254
 21
-508
 31
0.0
  0
LINE
  8
0
 10
254
 20
-508
 30
0.0
 11
169.56
 21
-338.6435
 31
0.0
  0
LINE
  8
0
 10
169.56
 20
-338.6435
 30
0.0
 11
84.67636
 21
-169.3217
 31
0.0
  0
LINE
  8
0
 10
84.67636
 20
-169.3217
 30
0.0
 11
0
 21
0
 31
0.0
  0
LINE
  8
0
 10
0
 20
0
 30
0.0
 11
-254
 21
-508
 31
0.0
  0
LINE
  8
0
 10
-254
 20
-508
 30
0.0
 11
-169.56
 21
-677.3566
 31
0.0
  0
LINE
  8
0
 10
-169.56
 20
-677.3566
 30
0.0
 11
-84.67636
 21
-846.6783
 31
0.0
  0
LINE
  8
0
 10
-84.67636
 20
-846.6783
 30
0.0
 11
0
 21
-1016
 31
0.0
  0
LINE
  8
0
 10
0
 20
-1016
 30
0.0
 11
254
 21
-508
 31
0.0
  0
LINE
  8
0
 10
254
 20
-508
 30
0.0
 11
508
 21
-1016
 31
0.0
  0
LINE
  8
0
 10
508
 20
-1016
 30
0.0
 11
762
 21
-508
 31
0.0
  0
LINE
  8
0
 10
762
 20
-508
 30
0.0
 11
846.44
 21
-677.3566
 31
0.0
  0
LINE
  8
0
 10
846.44
 20
-677.3566
 30
0.0
 11
592.6764
 21
-1185.322
 31
0.0
  0
LINE
  8
0
 10
592.6764
 20
-1185.322
 30
0.0
 11
677.56
 21
-1354.643
 31
0.0
  0
LINE
  8
0
 10
677.56
 20
-1354.643
 30
0.0
 11
931.3236
 21
-846.6783
 31
0.0
  0
LINE
  8
0
 10
931.3236
 20
-846.6783
 30
0.0
 11
1016
 21
-1016
 31
0.0
  0
LINE
  8
0
 10
1016
 20
-1016
 30
0.0
 11
762
 21
-1524
 31
0.0
  0
LINE
  8
0
 10
762
 20
-1524
 30
0.0
 11
677.56
 21
-1354.643
 31
0.0
  0
LINE
  8
0
 10
677.56
 20
-1354.643
 30
0.0
 11
592.6764
 21
-1185.322
 31
0.0
  0
LINE
  8
0
 10
592.6764
 20
-1185.322
 30
0.0
 11
508
 21
-1016
 31
0.0
  0
LINE
  8
0
 10
508
 20
-1016
 30
0.0
 11
254
 21
-1524
 31
0.0
  0
LINE
  8
0
 10
254
 20
-1524
 30
0.0
 11
0
 21
-1016
 31
0.0
  0
LINE
  8
0
 10
0
 20
-1016
 30
0.0
 11
-254
 21
-1524
 31
0.0
  0
CIRCLE
  8
0
 10
1000
 20
7000
 30
0.0
 40
100
  0
CIRCLE
  8
0
 10
3000
 20
7000
 30
0.0
 40
100
  0
CIRCLE
  8
0
 10
5000
 20
7000
 30
0.0
 40
100
  0
CIRCLE
  8
0
 10
100
 20
100
 30
0.0
 40
125
  0
CIRCLE
  8
0
 10
200
 20
200
 30
0.0
 40
200
  0
CIRCLE
  8
0
 10
300
 20
300
 30
0.0
 40
200
  0
CIRCLE
  8
0
 10
350
 20
350
 30
0.0
 40
200
  0
CIRCLE
  8
0
 10
360
 20
360
 30
0.0
 40
200
  0
CIRCLE
  8
0
 10
370
 20
370
 30
0.0
 40
200
  0
ENDSEC
  0
EOF
