  0
SECTION
  2
ENTITIES
  0
LINE
  8
0
 10
254
 20
1086.165
 30
0.0
 11
211.9453
 21
1027.401
 31
0.0
  0
LINE
  8
0
 10
211.9453
 20
1027.401
 30
0.0
 11
-384.175
 21
235.2652
 31
0.0
  0
LINE
  8
0
 10
-384.175
 20
235.2652
 30
0.0
 11
-342.1204
 21
176.5019
 31
0.0
  0
LINE
  8
0
 10
-342.1205
 20
176.5019
 30
0.0
 11
254
 21
968.6385
 31
0.0
  0
LINE
  8
0
 10
254
 20
968.6385
 30
0.0
 11
296.0547
 21
1027.401
 31
0.0
  0
LINE
  8
0
 10
296.0547
 20
1027.401
 30
0.0
 11
892.1749
 21
235.2652
 31
0.0
  0
LINE
  8
0
 10
892.1749
 20
235.2652
 30
0.0
 11
850.1201
 21
176.5019
 31
0.0
  0
LINE
  8
0
 10
850.1201
 20
176.5019
 30
0.0
 11
827.6905
 21
210.264
 31
0.0
  0
LINE
  8
0
 10
827.6905
 20
210.264
 30
0.0
 11
211.9453
 21
1027.401
 31
0.0
  0
LINE
  8
0
 10
211.9453
 20
1027.401
 30
0.0
 11
827.6905
 21
210.264
 31
0.0
  0
LINE
  8
0
 10
827.6905
 20
210.264
 30
0.0
 11
-448.6589
 21
210.264
 31
0.0
  0
LINE
  8
0
 10
-448.6589
 20
210.264
 30
0.0
 11
-426.2295
 21
176.5019
 31
0.0
  0
LINE
  8
0
 10
-426.2295
 20
176.5019
 30
0.0
 11
-448.6589
 21
142.7397
 31
0.0
  0
LINE
  8
0
 10
-448.6589
 20
142.7397
 30
0.0
 11
827.6905
 21
142.7397
 31
0.0
  0
LINE
  8
0
 10
827.6905
 20
142.7397
 30
0.0
 11
254
 21
-615.6349
 31
0.0
  0
LINE
  8
0
 10
254
 20
-615.6349
 30
0.0
 11
827.6905
 21
142.7397
 31
0.0
  0
LINE
  8
0
 10
827.6905
 20
142.7397
 30
0.0
 11
850.1201
 21
176.5019
 31
0.0
  0
LINE
  8
0
 10
850.1201
 20
176.5019
 30
0.0
 11
892.1749
 21
117.7385
 31
0.0
  0
LINE
  8
0
 10
892.1749
 20
117.7385
 30
0.0
 11
296.0547
 21
-674.3982
 31
0.0
  0
LINE
  8
0
 10
296.0547
 20
-674.3982
 30
0.0
 11
254
 21
-615.6349
 31
0.0
  0
LINE
  8
0
 10
254
 20
-615.6349
 30
0.0
 11
-342.1205
 21
176.5019
 31
0.0
  0
LINE
  8
0
 10
-342.1204
 20
176.5019
 30
0.0
 11
-365.482
 21
142.7397
 31
0.0
  0
LINE
  8
0
 10
-365.482
 20
142.7397
 30
0.0
 11
-384.175
 21
117.7385
 31
0.0
  0
LINE
  8
0
 10
-384.175
 20
117.7385
 30
0.0
 11
189.5157
 21
-640.6362
 31
0.0
  0
LINE
  8
0
 10
189.5157
 20
-640.6362
 30
0.0
 11
-1086.835
 21
-640.6362
 31
0.0
  0
LINE
  8
0
 10
-1086.835
 20
-640.6362
 30
0.0
 11
-1064.404
 21
-674.3982
 31
0.0
  0
LINE
  8
0
 10
-1064.404
 20
-674.3982
 30
0.0
 11
-1086.835
 21
-708.1602
 31
0.0
  0
LINE
  8
0
 10
-1086.835
 20
-708.1602
 30
0.0
 11
189.5157
 21
-708.1602
 31
0.0
  0
LINE
  8
0
 10
189.5157
 20
-708.1602
 30
0.0
 11
235.307
 21
-708.1602
 31
0.0
  0
LINE
  8
0
 10
235.307
 20
-708.1602
 30
0.0
 11
211.9453
 21
-674.3982
 31
0.0
  0
LINE
  8
0
 10
211.9453
 20
-674.3982
 30
0.0
 11
189.5157
 21
-640.6362
 31
0.0
  0
LINE
  8
0
 10
189.5157
 20
-640.6362
 30
0.0
 11
211.9453
 21
-674.3982
 31
0.0
  0
LINE
  8
0
 10
211.9453
 20
-674.3982
 30
0.0
 11
254
 21
-615.6349
 31
0.0
  0
CIRCLE
  8
0
 10
1000
 20
7000
 30
0.0
 40
100
  0
CIRCLE
  8
0
 10
3500
 20
7000
 30
0.0
 40
100
  0
CIRCLE
  8
0
 10
6000
 20
7000
 30
0.0
 40
100
  0
CIRCLE
  8
0
 10
100
 20
100
 30
0.0
 40
125
  0
CIRCLE
  8
0
 10
200
 20
200
 30
0.0
 40
200
  0
CIRCLE
  8
0
 10
300
 20
300
 30
0.0
 40
200
  0
CIRCLE
  8
0
 10
350
 20
350
 30
0.0
 40
200
  0
CIRCLE
  8
0
 10
360
 20
360
 30
0.0
 40
200
  0
CIRCLE
  8
0
 10
370
 20
370
 30
0.0
 40
200
  0
ENDSEC
  0
EOF
