  0
SECTION
  2
ENTITIES
  0
LINE
  8
0
 10
254
 20
762
 30
0.0
 11
169.3127
 21
635
 31
0.0
  0
LINE
  8
0
 10
169.3127
 20
635
 30
0.0
 11
-130.6836
 21
635
 31
0.0
  0
LINE
  8
0
 10
-130.6836
 20
635
 30
0.0
 11
-130.6836
 21
565.4957
 31
0.0
  0
LINE
  8
0
 10
-130.6836
 20
565.4957
 30
0.0
 11
123.6909
 21
565.4957
 31
0.0
  0
LINE
  8
0
 10
123.6909
 20
565.4957
 30
0.0
 11
-123.6909
 21
196.5043
 31
0.0
  0
LINE
  8
0
 10
-123.6909
 20
196.5043
 30
0.0
 11
130.6836
 21
196.5043
 31
0.0
  0
LINE
  8
0
 10
130.6836
 20
196.5043
 30
0.0
 11
130.6836
 21
127
 31
0.0
  0
LINE
  8
0
 10
130.6836
 20
127
 30
0.0
 11
-169.3127
 21
127
 31
0.0
  0
LINE
  8
0
 10
-169.3127
 20
127
 30
0.0
 11
-254
 21
0
 31
0.0
  0
LINE
  8
0
 10
-254
 20
0
 30
0.0
 11
-169.3127
 21
-127
 31
0.0
  0
LINE
  8
0
 10
-169.3127
 20
-127
 30
0.0
 11
130.6836
 21
-127
 31
0.0
  0
LINE
  8
0
 10
130.6836
 20
-127
 30
0.0
 11
130.6836
 21
-196.5043
 31
0.0
  0
LINE
  8
0
 10
130.6836
 20
-196.5043
 30
0.0
 11
-123.6909
 21
-196.5043
 31
0.0
  0
LINE
  8
0
 10
-123.6909
 20
-196.5043
 30
0.0
 11
123.6909
 21
-565.4957
 31
0.0
  0
LINE
  8
0
 10
123.6909
 20
-565.4957
 30
0.0
 11
-130.6836
 21
-565.4957
 31
0.0
  0
LINE
  8
0
 10
-130.6836
 20
-565.4957
 30
0.0
 11
-130.6836
 21
-635
 31
0.0
  0
LINE
  8
0
 10
-130.6836
 20
-635
 30
0.0
 11
169.3127
 21
-635
 31
0.0
  0
LINE
  8
0
 10
169.3127
 20
-635
 30
0.0
 11
254
 21
-762
 31
0.0
  0
CIRCLE
  8
0
 10
1000
 20
7000
 30
0.0
 40
100
  0
CIRCLE
  8
0
 10
2000
 20
8000
 30
0.0
 40
100
  0
CIRCLE
  8
0
 10
3000
 20
7000
 30
0.0
 40
100
  0
CIRCLE
  8
0
 10
100
 20
100
 30
0.0
 40
127
  0
CIRCLE
  8
0
 10
200
 20
200
 30
0.0
 40
200
  0
CIRCLE
  8
0
 10
300
 20
300
 30
0.0
 40
200
  0
CIRCLE
  8
0
 10
350
 20
350
 30
0.0
 40
200
  0
CIRCLE
  8
0
 10
360
 20
360
 30
0.0
 40
200
  0
CIRCLE
  8
0
 10
370
 20
370
 30
0.0
 40
200
  0
ENDSEC
  0
EOF
