  0
SECTION
  2
ENTITIES
  0
LINE
  8
0
 10
236.239
 20
74.47878
 30
0.0
 11
236.239
 21
-3.919939
 31
0.0
  0
LINE
  8
0
 10
236.239
 20
-3.919939
 30
0.0
 11
41.41269
 21
-3.91996
 31
0.0
  0
ARC
  8
0
 10
44.15656
 20
-39.50518
 30
0.0
 40
35.69084
 50
94.40908
 51
201.9933
  0
LINE
  8
0
 10
11.06303
 20
-52.87134
 30
0.0
 11
195.5115
 21
-373.6853
 31
0.0
  0
ARC
  8
0
 10
235.3233
 20
-345.6222
 30
0.0
 40
48.70833
 50
215.1802
 51
271.0781
  0
ARC
  8
0
 10
237.1558
 20
-345.6222
 30
0.0
 40
48.70833
 50
268.9226
 51
324.8206
  0
LINE
  8
0
 10
276.9677
 20
-373.6849
 30
0.0
 11
461.4131
 21
-52.86913
 31
0.0
  0
ARC
  8
0
 10
428.3214
 20
-39.50515
 30
0.0
 40
35.69084
 50
338.0067
 51
85.59131
  0
LINE
  8
0
 10
431.0652
 20
-3.919931
 30
0.0
 11
236.239
 21
-3.919939
 31
0.0
  0
LINE
  8
0
 10
236.239
 20
-3.919939
 30
0.0
 11
431.0652
 21
-3.919931
 31
0.0
  0
ARC
  8
0
 10
428.3214
 20
-39.50515
 30
0.0
 40
35.69084
 50
338.0067
 51
85.59131
  0
LINE
  8
0
 10
461.4131
 20
-52.86913
 30
0.0
 11
568.52
 21
-48.60635
 31
0.0
  0
LINE
  8
0
 10
568.5196
 20
-48.60649
 30
0.0
 11
384.0712
 21
-369.4205
 31
0.0
  0
ARC
  8
0
 10
417.1648
 20
-382.7867
 30
0.0
 40
35.69084
 50
158.0068
 51
265.5911
  0
LINE
  8
0
 10
414.4209
 20
-418.3719
 30
0.0
 11
609.2472
 21
-418.3719
 31
0.0
  0
LINE
  8
0
 10
609.2472
 20
-418.3719
 30
0.0
 11
414.4209
 21
-418.3719
 31
0.0
  0
ARC
  8
0
 10
417.1648
 20
-382.7867
 30
0.0
 40
35.69084
 50
158.0068
 51
265.5911
  0
LINE
  8
0
 10
384.0712
 20
-369.4205
 30
0.0
 11
568.5196
 21
-48.60649
 31
0.0
  0
ARC
  8
0
 10
608.3315
 20
-76.66963
 30
0.0
 40
48.70833
 50
88.92191
 51
144.8199
  0
ARC
  8
0
 10
610.1639
 20
-76.66963
 30
0.0
 40
48.70833
 50
35.17938
 51
91.07761
  0
LINE
  8
0
 10
649.9758
 20
-48.60691
 30
0.0
 11
834.4212
 21
-369.4227
 31
0.0
  0
ARC
  8
0
 10
801.3295
 20
-382.7867
 30
0.0
 40
35.69084
 50
274.4091
 51
21.99332
  0
LINE
  8
0
 10
804.0733
 20
-418.3719
 30
0.0
 11
609.2472
 21
-418.3719
 31
0.0
  0
LINE
  8
0
 10
609.2472
 20
-418.3719
 30
0.0
 11
609.2472
 21
-496.7706
 31
0.0
  0
LINE
  8
0
 10
609.2472
 20
-496.7706
 30
0.0
 11
804.0735
 21
-496.7706
 31
0.0
  0
ARC
  8
0
 10
801.3296
 20
-532.3557
 30
0.0
 40
35.69084
 50
338.0067
 51
85.59131
  0
LINE
  8
0
 10
834.4212
 20
-545.7197
 30
0.0
 11
649.9758
 21
-866.5355
 31
0.0
  0
LINE
  8
0
 10
649.9758
 20
-866.5355
 30
0.0
 11
834.4212
 21
-545.7197
 31
0.0
  0
ARC
  8
0
 10
801.3296
 20
-532.3557
 30
0.0
 40
35.69084
 50
338.0067
 51
85.59131
  0
LINE
  8
0
 10
804.0735
 20
-496.7706
 30
0.0
 11
609.2472
 21
-496.7706
 31
0.0
  0
LINE
  8
0
 10
609.2472
 20
-496.7706
 30
0.0
 11
414.4209
 21
-496.7706
 31
0.0
  0
ARC
  8
0
 10
417.1648
 20
-532.3558
 30
0.0
 40
35.69084
 50
94.40908
 51
201.9933
  0
LINE
  8
0
 10
384.0712
 20
-545.722
 30
0.0
 11
568.5197
 21
-866.5359
 31
0.0
  0
ARC
  8
0
 10
608.3315
 20
-838.4728
 30
0.0
 40
48.70833
 50
215.1802
 51
271.0781
  0
ARC
  8
0
 10
610.1639
 20
-838.4728
 30
0.0
 40
48.70833
 50
268.9226
 51
324.8206
  0
ARC
  8
0
 10
610.1639
 20
-838.4728
 30
0.0
 40
48.70833
 50
268.9226
 51
324.8206
  0
ARC
  8
0
 10
608.3315
 20
-838.4728
 30
0.0
 40
48.70833
 50
215.1802
 51
271.0781
  0
LINE
  8
0
 10
568.52
 20
-866.5359
 30
0.0
 11
461.4128
 21
-892.572
 31
0.0
  0
LINE
  8
0
 10
461.4128
 20
-892.572
 30
0.0
 11
276.9675
 21
-571.7563
 31
0.0
  0
ARC
  8
0
 10
237.1556
 20
-599.819
 30
0.0
 40
48.70833
 50
35.17938
 51
91.07761
  0
ARC
  8
0
 10
235.3231
 20
-599.819
 30
0.0
 40
48.70833
 50
88.92191
 51
144.8199
  0
LINE
  8
0
 10
195.5113
 20
-571.7559
 30
0.0
 11
11.06283
 21
-892.5698
 31
0.0
  0
ARC
  8
0
 10
44.15638
 20
-905.936
 30
0.0
 40
35.69084
 50
158.0068
 51
265.5911
  0
LINE
  8
0
 10
41.41251
 20
-941.5213
 30
0.0
 11
236.2388
 21
-941.5212
 31
0.0
  0
LINE
  8
0
 10
236.2388
 20
-941.5212
 30
0.0
 11
431.0651
 21
-941.5212
 31
0.0
  0
ARC
  8
0
 10
428.3212
 20
-905.936
 30
0.0
 40
35.69084
 50
274.4091
 51
21.99332
  0
ARC
  8
0
 10
428.3212
 20
-905.936
 30
0.0
 40
35.69084
 50
274.4091
 51
21.99332
  0
LINE
  8
0
 10
431.0651
 20
-941.5212
 30
0.0
 11
236.2388
 21
-941.5212
 31
0.0
  0
CIRCLE
  8
0
 10
1000
 20
7000
 30
0.0
 40
100
  0
CIRCLE
  8
0
 10
2500
 20
7000
 30
0.0
 40
100
  0
CIRCLE
  8
0
 10
4000
 20
7000
 30
0.0
 40
100
  0
CIRCLE
  8
0
 10
100
 20
100
 30
0.0
 40
125
  0
CIRCLE
  8
0
 10
200
 20
200
 30
0.0
 40
200
  0
CIRCLE
  8
0
 10
300
 20
300
 30
0.0
 40
200
  0
CIRCLE
  8
0
 10
350
 20
350
 30
0.0
 40
200
  0
CIRCLE
  8
0
 10
360
 20
360
 30
0.0
 40
200
  0
CIRCLE
  8
0
 10
370
 20
370
 30
0.0
 40
200
  0
ENDSEC
  0
EOF
