  0
SECTION
  2
ENTITIES
  0
LINE
  8
0
 10
68.58
 20
34.29
 30
0.0
 11
-.9444509
 21
-2.222498
 31
0.0
  0
LINE
  8
0
 10
-.9444509
 20
-2.222498
 30
0.0
 11
68.58
 21
-38.735
 31
0.0
  0
LINE
  8
0
 10
68.58
 20
-38.735
 30
0.0
 11
-.9444509
 21
-75.24749
 31
0.0
  0
LINE
  8
0
 10
-.9444509
 20
-75.24749
 30
0.0
 11
68.58
 21
-111.76
 31
0.0
  0
LINE
  8
0
 10
68.58
 20
-111.76
 30
0.0
 11
-.9444509
 21
-148.2725
 31
0.0
  0
LINE
  8
0
 10
-.9444509
 20
-148.2725
 30
0.0
 11
68.58
 21
-184.785
 31
0.0
  0
LINE
  8
0
 10
68.58
 20
-184.785
 30
0.0
 11
-.9444509
 21
-221.2975
 31
0.0
  0
LINE
  8
0
 10
-.9444509
 20
-221.2975
 30
0.0
 11
68.58
 21
-257.81
 31
0.0
  0
CIRCLE
  8
0
 10
1000
 20
7000
 30
0.0
 40
100
  0
CIRCLE
  8
0
 10
3000
 20
7000
 30
0.0
 40
100
  0
CIRCLE
  8
0
 10
5000
 20
7000
 30
0.0
 40
100
  0
CIRCLE
  8
0
 10
100
 20
100
 30
0.0
 40
125
  0
CIRCLE
  8
0
 10
200
 20
200
 30
0.0
 40
200
  0
CIRCLE
  8
0
 10
300
 20
300
 30
0.0
 40
200
  0
CIRCLE
  8
0
 10
350
 20
350
 30
0.0
 40
200
  0
CIRCLE
  8
0
 10
360
 20
360
 30
0.0
 40
200
  0
CIRCLE
  8
0
 10
370
 20
370
 30
0.0
 40
200
  0
ENDSEC
  0
EOF
