  0
SECTION
  2
ENTITIES
  0
LINE
  8
0
 10
37.37088
 20
27.94
 30
0.0
 11
-3.397352
 21
12.7
 31
0.0
  0
LINE
  8
0
 10
-3.397352
 20
12.7
 30
0.0
 11
37.37088
 21
-2.539999
 31
0.0
  0
LINE
  8
0
 10
37.37088
 20
-2.539999
 30
0.0
 11
-3.397352
 21
-17.78
 31
0.0
  0
LINE
  8
0
 10
-3.397352
 20
-17.78
 30
0.0
 11
37.37088
 21
-33.02
 31
0.0
  0
LINE
  8
0
 10
37.37088
 20
-33.02
 30
0.0
 11
-3.397352
 21
-48.26
 31
0.0
  0
LINE
  8
0
 10
-3.397352
 20
-48.26
 30
0.0
 11
37.37088
 21
-63.5
 31
0.0
  0
LINE
  8
0
 10
37.37088
 20
-63.5
 30
0.0
 11
-3.397352
 21
-78.74
 31
0.0
  0
LINE
  8
0
 10
-3.397352
 20
-78.74
 30
0.0
 11
37.37088
 21
-93.98
 31
0.0
  0
CIRCLE
  8
0
 10
1000
 20
7000
 30
0.0
 40
100
  0
CIRCLE
  8
0
 10
3000
 20
7000
 30
0.0
 40
100
  0
CIRCLE
  8
0
 10
5000
 20
7000
 30
0.0
 40
100
  0
CIRCLE
  8
0
 10
100
 20
100
 30
0.0
 40
145
  0
CIRCLE
  8
0
 10
200
 20
200
 30
0.0
 40
200
  0
CIRCLE
  8
0
 10
300
 20
300
 30
0.0
 40
200
  0
CIRCLE
  8
0
 10
350
 20
350
 30
0.0
 40
200
  0
CIRCLE
  8
0
 10
360
 20
360
 30
0.0
 40
200
  0
CIRCLE
  8
0
 10
370
 20
370
 30
0.0
 40
200
  0
ENDSEC
  0
EOF
