  0
SECTION
  2
ENTITIES
  0
ARC
  8
0
 10
-390.1947
 20
21.45485
 30
0.0
 40
390.7852
 50
315.1815
 51
356.8535
  0
LINE
  8
0
 10
-112.9946
 20
-253.9961
 30
0.0
 11
-394.9979
 21
-507.9975
 31
0.0
  0
ARC
  8
0
 10
-117.7993
 20
-783.4499
 30
0.0
 40
390.7852
 50
135.1811
 51
176.8531
  0
ARC
  8
0
 10
-117.7991
 20
-740.5452
 30
0.0
 40
390.7852
 50
183.1467
 51
224.8186
  0
LINE
  8
0
 10
-394.9979
 20
-1015.997
 30
0.0
 11
-112.9946
 21
-1269.998
 31
0.0
  0
ARC
  8
0
 10
-390.1947
 20
-1545.449
 30
0.0
 40
390.7852
 50
3.146806
 51
44.81869
  0
CIRCLE
  8
0
 10
1000
 20
7000
 30
0.0
 40
100
  0
CIRCLE
  8
0
 10
1500
 20
8000
 30
0.0
 40
100
  0
CIRCLE
  8
0
 10
2000
 20
7000
 30
0.0
 40
100
  0
CIRCLE
  8
0
 10
100
 20
100
 30
0.0
 40
126
  0
CIRCLE
  8
0
 10
200
 20
200
 30
0.0
 40
205
  0
CIRCLE
  8
0
 10
300
 20
300
 30
0.0
 40
200
  0
CIRCLE
  8
0
 10
350
 20
350
 30
0.0
 40
200
  0
CIRCLE
  8
0
 10
360
 20
360
 30
0.0
 40
200
  0
CIRCLE
  8
0
 10
370
 20
370
 30
0.0
 40
200
  0
ENDSEC
  0
EOF
