  0
SECTION
  2
ENTITIES
  0
ARC
  8
0
 10
-561.9568
 20
327.722
 30
0.0
 40
710.193
 50
359.1746
 51
37.69535
  0
ARC
  8
0
 10
-561.9574
 20
307.2862
 30
0.0
 40
710.193
 50
322.3019
 51
.8230339
  0
ARC
  8
0
 10
434.2752
 20
434.928
 30
0.0
 40
710.193
 50
232.3003
 51
270.8214
  0
ARC
  8
0
 10
454.711
 20
434.9271
 30
0.0
 40
710.193
 50
269.1729
 51
307.6937
  0
ARC
  8
0
 10
1450.907
 20
307.2557
 30
0.0
 40
710.193
 50
179.174
 51
217.6954
  0
ARC
  8
0
 10
1450.907
 20
327.6916
 30
0.0
 40
710.193
 50
142.3017
 51
180.8228
  0
ARC
  8
0
 10
1450.907
 20
327.6916
 30
0.0
 40
710.193
 50
142.3017
 51
180.8228
  0
ARC
  8
0
 10
1450.907
 20
307.2557
 30
0.0
 40
710.193
 50
179.174
 51
217.6954
  0
ARC
  8
0
 10
1323.19
 20
-689.0127
 30
0.0
 40
710.193
 50
89.17264
 51
127.6939
  0
ARC
  8
0
 10
1343.625
 20
-689.0137
 30
0.0
 40
710.193
 50
52.30033
 51
90.82127
  0
ARC
  8
0
 10
2339.856
 20
-561.3323
 30
0.0
 40
710.193
 50
142.3017
 51
180.8228
  0
ARC
  8
0
 10
2339.856
 20
-581.7679
 30
0.0
 40
710.193
 50
179.174
 51
217.6954
  0
ARC
  8
0
 10
1343.662
 20
-454.1016
 30
0.0
 40
710.193
 50
269.1729
 51
307.6937
  0
ARC
  8
0
 10
1323.226
 20
-454.1004
 30
0.0
 40
710.193
 50
232.3003
 51
270.8214
  0
ARC
  8
0
 10
326.9907
 20
-581.7375
 30
0.0
 40
710.193
 50
322.3019
 51
.8230339
  0
ARC
  8
0
 10
326.9911
 20
-561.3016
 30
0.0
 40
710.193
 50
359.1746
 51
37.69535
  0
ARC
  8
0
 10
326.9911
 20
-561.3016
 30
0.0
 40
710.193
 50
359.1746
 51
37.69535
  0
ARC
  8
0
 10
326.9907
 20
-581.7375
 30
0.0
 40
710.193
 50
322.3019
 51
.8230339
  0
ARC
  8
0
 10
454.6282
 20
-1577.991
 30
0.0
 40
710.193
 50
52.30033
 51
90.82127
  0
ARC
  8
0
 10
434.1924
 20
-1577.99
 30
0.0
 40
710.193
 50
89.17264
 51
127.6939
  0
CIRCLE
  8
0
 10
1000
 20
7000
 30
0.0
 40
100
  0
CIRCLE
  8
0
 10
4500
 20
7000
 30
0.0
 40
100
  0
CIRCLE
  8
0
 10
8000
 20
7000
 30
0.0
 40
100
  0
CIRCLE
  8
0
 10
18000
 20
6000
 30
0.0
 40
100
  0
CIRCLE
  8
0
 10
100
 20
100
 30
0.0
 40
125
  0
CIRCLE
  8
0
 10
200
 20
200
 30
0.0
 40
200
  0
CIRCLE
  8
0
 10
300
 20
300
 30
0.0
 40
201
  0
CIRCLE
  8
0
 10
350
 20
350
 30
0.0
 40
200
  0
CIRCLE
  8
0
 10
360
 20
360
 30
0.0
 40
200
  0
CIRCLE
  8
0
 10
370
 20
370
 30
0.0
 40
200
  0
ENDSEC
  0
EOF
