  0
SECTION
  2
ENTITIES
  0
ARC
  8
0
 10
250.256
 20
132.0807
 30
0.0
 40
212.4732
 50
95.74528
 51
132.9389
  0
ARC
  8
0
 10
471.8522
 20
-40.6169
 30
0.0
 40
491.8814
 50
138.1388
 51
178.748
  0
ARC
  8
0
 10
471.8521
 20
-19.1181
 30
0.0
 40
491.8814
 50
181.2527
 51
221.8619
  0
ARC
  8
0
 10
250.2573
 20
-191.8177
 30
0.0
 40
212.4732
 50
227.0618
 51
264.2554
  0
ARC
  8
0
 10
250.2573
 20
-191.8177
 30
0.0
 40
212.4732
 50
227.0618
 51
264.2554
  0
ARC
  8
0
 10
471.8521
 20
-19.1181
 30
0.0
 40
491.8814
 50
181.2527
 51
221.8619
  0
ARC
  8
0
 10
471.8522
 20
-40.6169
 30
0.0
 40
491.8814
 50
138.1388
 51
178.748
  0
ARC
  8
0
 10
250.256
 20
132.0807
 30
0.0
 40
212.4732
 50
95.74528
 51
132.9389
  0
ARC
  8
0
 10
207.7219
 20
132.0802
 30
0.0
 40
212.4732
 50
47.06258
 51
84.2562
  0
ARC
  8
0
 10
-13.87033
 20
-40.62249
 30
0.0
 40
491.8814
 50
1.253421
 51
41.86267
  0
ARC
  8
0
 10
-13.87043
 20
-19.11697
 30
0.0
 40
491.8814
 50
318.1382
 51
358.7474
  0
ARC
  8
0
 10
207.7234
 20
-191.8176
 30
0.0
 40
212.4732
 50
275.7446
 51
312.9382
  0
ARC
  8
0
 10
207.7234
 20
-191.8176
 30
0.0
 40
212.4732
 50
275.7446
 51
312.9382
  0
ARC
  8
0
 10
718.7946
 20
-675.6166
 30
0.0
 40
491.8814
 50
138.1388
 51
178.748
  0
ARC
  8
0
 10
718.7946
 20
-654.1177
 30
0.0
 40
491.8814
 50
181.2527
 51
221.8619
  0
ARC
  8
0
 10
718.7946
 20
-654.1177
 30
0.0
 40
491.8814
 50
181.2527
 51
221.8619
  0
ARC
  8
0
 10
718.7946
 20
-675.6166
 30
0.0
 40
491.8814
 50
138.1388
 51
178.748
  0
ARC
  8
0
 10
497.1983
 20
-502.9189
 30
0.0
 40
212.4732
 50
95.74528
 51
132.9389
  0
ARC
  8
0
 10
454.6643
 20
-502.9195
 30
0.0
 40
212.4732
 50
47.06258
 51
84.2562
  0
ARC
  8
0
 10
233.072
 20
-675.6223
 30
0.0
 40
491.8814
 50
1.253421
 51
41.86267
  0
ARC
  8
0
 10
233.0719
 20
-654.1168
 30
0.0
 40
491.8814
 50
318.1382
 51
358.7474
  0
ARC
  8
0
 10
454.6657
 20
-826.8173
 30
0.0
 40
212.4732
 50
275.7446
 51
312.9382
  0
ARC
  8
0
 10
497.1998
 20
-826.8173
 30
0.0
 40
212.4732
 50
227.0618
 51
264.2554
  0
ARC
  8
0
 10
207.7268
 20
-1137.92
 30
0.0
 40
212.4732
 50
47.06258
 51
84.2562
  0
CIRCLE
  8
0
 10
1000
 20
7000
 30
0.0
 40
100
  0
CIRCLE
  8
0
 10
2000
 20
7000
 30
0.0
 40
100
  0
CIRCLE
  8
0
 10
3000
 20
7000
 30
0.0
 40
100
  0
CIRCLE
  8
0
 10
100
 20
100
 30
0.0
 40
125
  0
CIRCLE
  8
0
 10
200
 20
200
 30
0.0
 40
200
  0
CIRCLE
  8
0
 10
300
 20
300
 30
0.0
 40
200
  0
CIRCLE
  8
0
 10
350
 20
350
 30
0.0
 40
200
  0
CIRCLE
  8
0
 10
360
 20
360
 30
0.0
 40
200
  0
CIRCLE
  8
0
 10
370
 20
370
 30
0.0
 40
200
  0
ENDSEC
  0
EOF
