  0
SECTION
  2
ENTITIES
  0
ARC
  8
0
 10
-300.5986
 20
779.9115
 30
0.0
 40
361.516
 50
316.9168
 51
357.1581
  0
LINE
  8
0
 10
-36.56169
 20
532.9736
 30
0.0
 11
-463.2337
 21
228.9968
 31
0.0
  0
ARC
  8
0
 10
-199.1969
 20
-17.94118
 30
0.0
 40
361.516
 50
136.9167
 51
177.158
  0
ARC
  8
0
 10
-199.1969
 20
17.91015
 30
0.0
 40
361.516
 50
182.8421
 51
223.0834
  0
LINE
  8
0
 10
-463.2337
 20
-229.0252
 30
0.0
 11
-36.56169
 21
-533.002
 31
0.0
  0
ARC
  8
0
 10
-300.5986
 20
-779.9399
 30
0.0
 40
361.516
 50
2.842171
 51
43.08344
  0
CIRCLE
  8
0
 10
1000
 20
7000
 30
0.0
 40
100
  0
CIRCLE
  8
0
 10
2500
 20
8000
 30
0.0
 40
100
  0
CIRCLE
  8
0
 10
4000
 20
7000
 30
0.0
 40
100
  0
CIRCLE
  8
0
 10
100
 20
100
 30
0.0
 40
125
  0
CIRCLE
  8
0
 10
200
 20
200
 30
0.0
 40
200
  0
CIRCLE
  8
0
 10
300
 20
300
 30
0.0
 40
200
  0
CIRCLE
  8
0
 10
350
 20
350
 30
0.0
 40
200
  0
CIRCLE
  8
0
 10
360
 20
360
 30
0.0
 40
200
  0
CIRCLE
  8
0
 10
370
 20
370
 30
0.0
 40
200
  0
ENDSEC
  0
EOF
