  0
SECTION
  2
ENTITIES
  0
LINE
  8
0
 10
0
 20
134.3025
 30
0.0
 11
-61.6736
 21
119.38
 31
0.0
  0
LINE
  8
0
 10
-61.6736
 20
119.38
 30
0.0
 11
0
 21
104.4575
 31
0.0
  0
LINE
  8
0
 10
0
 20
104.4575
 30
0.0
 11
-61.6736
 21
89.535
 31
0.0
  0
LINE
  8
0
 10
-61.6736
 20
89.535
 30
0.0
 11
0
 21
74.6125
 31
0.0
  0
LINE
  8
0
 10
0
 20
74.6125
 30
0.0
 11
-61.6736
 21
59.69
 31
0.0
  0
LINE
  8
0
 10
-61.6736
 20
59.69
 30
0.0
 11
0
 21
44.76751
 31
0.0
  0
LINE
  8
0
 10
0
 20
44.76751
 30
0.0
 11
-61.6736
 21
29.845
 31
0.0
  0
LINE
  8
0
 10
-61.6736
 20
29.845
 30
0.0
 11
0
 21
14.9225
 31
0.0
  0
LINE
  8
0
 10
0
 20
14.9225
 30
0.0
 11
-61.6736
 21
0
 31
0.0
  0
LINE
  8
0
 10
-61.6736
 20
0
 30
0.0
 11
0
 21
-14.9225
 31
0.0
  0
LINE
  8
0
 10
0
 20
-14.9225
 30
0.0
 11
-61.6736
 21
-29.845
 31
0.0
  0
LINE
  8
0
 10
-61.6736
 20
-29.845
 30
0.0
 11
0
 21
-44.7675
 31
0.0
  0
LINE
  8
0
 10
0
 20
-44.7675
 30
0.0
 11
-61.6736
 21
-59.69
 31
0.0
  0
LINE
  8
0
 10
-61.6736
 20
-59.69
 30
0.0
 11
0
 21
-74.6125
 31
0.0
  0
LINE
  8
0
 10
0
 20
-74.6125
 30
0.0
 11
-61.6736
 21
-89.535
 31
0.0
  0
LINE
  8
0
 10
-61.6736
 20
-89.535
 30
0.0
 11
0
 21
-104.4575
 31
0.0
  0
CIRCLE
  8
0
 10
1000
 20
7000
 30
0.0
 40
100
  0
CIRCLE
  8
0
 10
5000
 20
7000
 30
0.0
 40
100
  0
CIRCLE
  8
0
 10
9000
 20
7000
 30
0.0
 40
100
  0
CIRCLE
  8
0
 10
100
 20
100
 30
0.0
 40
150
  0
CIRCLE
  8
0
 10
200
 20
200
 30
0.0
 40
200
  0
CIRCLE
  8
0
 10
300
 20
300
 30
0.0
 40
200
  0
CIRCLE
  8
0
 10
350
 20
350
 30
0.0
 40
200
  0
CIRCLE
  8
0
 10
360
 20
360
 30
0.0
 40
200
  0
CIRCLE
  8
0
 10
370
 20
370
 30
0.0
 40
200
  0
ENDSEC
  0
EOF
