  0
SECTION
  2
ENTITIES
  0
ARC
  8
0
 10
155.6116
 20
512.7355
 30
0.0
 40
352.4201
 50
315.1482
 51
359.2302
  0
LINE
  8
0
 10
405.453
 20
264.1812
 30
0.0
 11
56.36397
 21
-10.18155
 31
0.0
  0
ARC
  8
0
 10
306.2061
 20
-258.735
 30
0.0
 40
352.4201
 50
135.1482
 51
179.2302
  0
ARC
  8
0
 10
306.2061
 20
-249.2661
 30
0.0
 40
352.4201
 50
180.7696
 51
224.8515
  0
LINE
  8
0
 10
56.36273
 20
-497.8182
 30
0.0
 11
405.4504
 21
-772.1828
 31
0.0
  0
ARC
  8
0
 10
155.6077
 20
-1020.736
 30
0.0
 40
352.4201
 50
.7697625
 51
44.85175
  0
CIRCLE
  8
0
 10
1000
 20
7000
 30
0.0
 40
100
  0
CIRCLE
  8
0
 10
1500
 20
7000
 30
0.0
 40
100
  0
CIRCLE
  8
0
 10
2500
 20
8000
 30
0.0
 40
100
  0
CIRCLE
  8
0
 10
3000
 20
8000
 30
0.0
 40
100
  0
CIRCLE
  8
0
 10
4000
 20
7000
 30
0.0
 40
100
  0
CIRCLE
  8
0
 10
100
 20
100
 30
0.0
 40
128
  0
CIRCLE
  8
0
 10
200
 20
200
 30
0.0
 40
205
  0
CIRCLE
  8
0
 10
300
 20
300
 30
0.0
 40
200
  0
CIRCLE
  8
0
 10
350
 20
350
 30
0.0
 40
200
  0
CIRCLE
  8
0
 10
360
 20
360
 30
0.0
 40
200
  0
CIRCLE
  8
0
 10
370
 20
370
 30
0.0
 40
200
  0
ENDSEC
  0
EOF
