  0
SECTION
  2
ENTITIES
  0
LINE
  8
0
 10
487.3781
 20
528.6218
 30
0.0
 11
19.01297
 21
60.25669
 31
0.0
  0
LINE
  8
0
 10
19.01297
 20
60.25669
 30
0.0
 11
35.80652
 21
43.48699
 31
0.0
  0
LINE
  8
0
 10
35.80655
 20
43.48703
 30
0.0
 11
523.9891
 21
531.6696
 31
0.0
  0
LINE
  8
0
 10
523.9891
 20
531.6696
 30
0.0
 11
546.8303
 21
508.8045
 31
0.0
  0
LINE
  8
0
 10
546.8303
 20
508.8045
 30
0.0
 11
527.0129
 21
488.9871
 31
0.0
  0
LINE
  8
0
 10
527.0129
 20
488.9871
 30
0.0
 11
58.64775
 21
20.62191
 31
0.0
  0
LINE
  8
0
 10
58.64775
 20
20.62191
 30
0.0
 11
38.83036
 21
.8045389
 31
0.0
  0
LINE
  8
0
 10
38.83036
 20
.8045389
 30
0.0
 11
19.01297
 21
-19.01287
 31
0.0
  0
LINE
  8
0
 10
19.01297
 20
-19.01287
 30
0.0
 11
38.83036
 21
.8045389
 31
0.0
  0
LINE
  8
0
 10
38.83036
 20
.8045389
 30
0.0
 11
58.64775
 21
20.62191
 31
0.0
  0
LINE
  8
0
 10
58.64775
 20
20.62191
 30
0.0
 11
527.0129
 21
488.9871
 31
0.0
  0
LINE
  8
0
 10
527.0129
 20
488.9871
 30
0.0
 11
487.3781
 21
528.6218
 31
0.0
  0
LINE
  8
0
 10
487.3781
 20
528.6218
 30
0.0
 11
527.0129
 21
488.9871
 31
0.0
  0
LINE
  8
0
 10
527.0129
 20
488.9871
 30
0.0
 11
995.3782
 21
20.62191
 31
0.0
  0
LINE
  8
0
 10
995.3782
 20
20.62191
 30
0.0
 11
1015.196
 21
40.4393
 31
0.0
  0
LINE
  8
0
 10
1015.196
 20
40.4393
 30
0.0
 11
1035.013
 21
60.25669
 31
0.0
  0
LINE
  8
0
 10
1035.013
 20
60.25669
 30
0.0
 11
566.6476
 21
528.6218
 31
0.0
  0
LINE
  8
0
 10
566.6476
 20
528.6218
 30
0.0
 11
546.8303
 21
508.8045
 31
0.0
  0
LINE
  8
0
 10
546.8303
 20
508.8045
 30
0.0
 11
1015.196
 21
40.4393
 31
0.0
  0
LINE
  8
0
 10
1015.196
 20
40.4393
 30
0.0
 11
1038.415
 21
17.22611
 31
0.0
  0
LINE
  8
0
 10
1038.415
 20
17.22611
 30
0.0
 11
1018.598
 21
-2.591263
 31
0.0
  0
LINE
  8
0
 10
1018.598
 20
-2.591263
 30
0.0
 11
550.2319
 21
-470.9566
 31
0.0
  0
LINE
  8
0
 10
550.2319
 20
-470.9566
 30
0.0
 11
566.6476
 21
-487.3782
 31
0.0
  0
LINE
  8
0
 10
566.6476
 20
-487.3782
 30
0.0
 11
1035.013
 21
-19.01287
 31
0.0
  0
LINE
  8
0
 10
1035.013
 20
-19.01287
 30
0.0
 11
1015.196
 21
.8045389
 31
0.0
  0
LINE
  8
0
 10
1015.196
 20
.8045389
 30
0.0
 11
995.3782
 21
20.62191
 31
0.0
  0
LINE
  8
0
 10
995.3782
 20
20.62191
 30
0.0
 11
527.0129
 21
-447.7434
 31
0.0
  0
LINE
  8
0
 10
527.0129
 20
-447.7434
 30
0.0
 11
58.64775
 21
20.62191
 31
0.0
  0
LINE
  8
0
 10
58.64775
 20
20.62191
 30
0.0
 11
35.80652
 21
43.48699
 31
0.0
  0
LINE
  8
0
 10
35.80652
 20
43.48699
 30
0.0
 11
15.98913
 21
23.66961
 31
0.0
  0
LINE
  8
0
 10
15.98913
 20
23.66961
 30
0.0
 11
38.83036
 21
.8045389
 31
0.0
  0
LINE
  8
0
 10
38.83036
 20
.8045389
 30
0.0
 11
507.1955
 21
-467.5608
 31
0.0
  0
LINE
  8
0
 10
507.1955
 20
-467.5608
 30
0.0
 11
530.4146
 21
-490.7739
 31
0.0
  0
LINE
  8
0
 10
530.4146
 20
-490.7739
 30
0.0
 11
550.2319
 21
-470.9566
 31
0.0
  0
LINE
  8
0
 10
550.2319
 20
-470.9566
 30
0.0
 11
527.0129
 21
-447.7434
 31
0.0
  0
LINE
  8
0
 10
527.0129
 20
-447.7434
 30
0.0
 11
507.1955
 21
-467.5608
 31
0.0
  0
LINE
  8
0
 10
507.1955
 20
-467.5608
 30
0.0
 11
487.3781
 21
-487.3782
 31
0.0
  0
LINE
  8
0
 10
487.3781
 20
-487.3782
 30
0.0
 11
19.01297
 21
-19.01287
 31
0.0
  0
LINE
  8
0
 10
19.01297
 20
-19.01287
 30
0.0
 11
487.3781
 21
-487.3782
 31
0.0
  0
CIRCLE
  8
0
 10
1000
 20
7000
 30
0.0
 40
100
  0
CIRCLE
  8
0
 10
3000
 20
7000
 30
0.0
 40
100
  0
CIRCLE
  8
0
 10
5000
 20
7000
 30
0.0
 40
100
  0
CIRCLE
  8
0
 10
100
 20
100
 30
0.0
 40
130
  0
CIRCLE
  8
0
 10
200
 20
200
 30
0.0
 40
200
  0
CIRCLE
  8
0
 10
300
 20
300
 30
0.0
 40
203
  0
CIRCLE
  8
0
 10
350
 20
350
 30
0.0
 40
200
  0
CIRCLE
  8
0
 10
360
 20
360
 30
0.0
 40
200
  0
CIRCLE
  8
0
 10
370
 20
370
 30
0.0
 40
200
  0
ENDSEC
  0
EOF
