  0
SECTION
  2
ENTITIES
  0
LINE
  8
0
 10
358.629
 20
358.629
 30
0.0
 11
240.9999
 21
242.3998
 31
0.0
  0
ARC
  8
0
 10
-166.4477
 20
-104.7332
 30
0.0
 40
535.2709
 50
40.43003
 51
67.49087
  0
ARC
  8
0
 10
-80.70985
 20
81.9286
 30
0.0
 40
330.097
 50
68.83555
 51
164.6662
  0
ARC
  8
0
 10
-55.75788
 20
144.161
 30
0.0
 40
344.2119
 50
175.8255
 51
242.4431
  0
ARC
  8
0
 10
159.359
 20
540.3017
 30
0.0
 40
794.9653
 50
241.9064
 51
255.402
  0
ARC
  8
0
 10
-184.1032
 20
-1014.869
 30
0.0
 40
798.7922
 50
47.20007
 51
79.67999
  0
LINE
  8
0
 10
358.6289
 20
-428.771
 30
0.0
 11
358.6289
 21
371.7391
 31
0.0
  0
LINE
  8
0
 10
358.6289
 20
371.7391
 30
0.0
 11
358.6289
 21
-428.771
 31
0.0
  0
CIRCLE
  8
0
 10
1000
 20
7000
 30
0.0
 40
100
  0
CIRCLE
  8
0
 10
2500
 20
7000
 30
0.0
 40
100
  0
CIRCLE
  8
0
 10
4000
 20
7000
 30
0.0
 40
100
  0
CIRCLE
  8
0
 10
100
 20
100
 30
0.0
 40
128
  0
CIRCLE
  8
0
 10
200
 20
200
 30
0.0
 40
200
  0
CIRCLE
  8
0
 10
300
 20
300
 30
0.0
 40
200
  0
CIRCLE
  8
0
 10
350
 20
350
 30
0.0
 40
200
  0
CIRCLE
  8
0
 10
360
 20
360
 30
0.0
 40
200
  0
CIRCLE
  8
0
 10
370
 20
370
 30
0.0
 40
200
  0
ENDSEC
  0
EOF
