  0
SECTION
  2
ENTITIES
  0
ARC
  8
0
 10
1429.745
 20
2276.806
 30
0.0
 40
140.0116
 50
102.0284
 51
231.2636
  0
LINE
  8
0
 10
1342.134
 20
2167.592
 30
0.0
 11
1706.369
 21
1897.894
 31
0.0
  0
ARC
  8
0
 10
1618.759
 20
1788.68
 30
0.0
 40
140.0116
 50
282.0289
 51
51.26417
  0
ARC
  8
0
 10
1618.759
 20
1514.806
 30
0.0
 40
140.0116
 50
308.7361
 51
77.97108
  0
LINE
  8
0
 10
1706.369
 20
1405.592
 30
0.0
 11
1342.134
 21
1135.894
 31
0.0
  0
ARC
  8
0
 10
1429.745
 20
1026.681
 30
0.0
 40
140.0116
 50
128.7364
 51
257.9717
  0
CIRCLE
  8
0
 10
1000
 20
7000
 30
0.0
 40
100
  0
CIRCLE
  8
0
 10
1500
 20
7000
 30
0.0
 40
100
  0
CIRCLE
  8
0
 10
2500
 20
8000
 30
0.0
 40
100
  0
CIRCLE
  8
0
 10
3000
 20
8000
 30
0.0
 40
100
  0
CIRCLE
  8
0
 10
4000
 20
7000
 30
0.0
 40
100
  0
CIRCLE
  8
0
 10
100
 20
100
 30
0.0
 40
125
  0
CIRCLE
  8
0
 10
200
 20
200
 30
0.0
 40
204
  0
CIRCLE
  8
0
 10
300
 20
300
 30
0.0
 40
200
  0
CIRCLE
  8
0
 10
350
 20
350
 30
0.0
 40
200
  0
CIRCLE
  8
0
 10
360
 20
360
 30
0.0
 40
200
  0
CIRCLE
  8
0
 10
370
 20
370
 30
0.0
 40
200
  0
ENDSEC
  0
EOF
