  0
SECTION
  2
ENTITIES
  0
ARC
  8
0
 10
467.8489
 20
461.4407
 30
0.0
 40
175.7418
 50
184.2796
 51
92.5217
  0
ARC
  8
0
 10
111.5193
 20
453.3944
 30
0.0
 40
181.1485
 50
358.3965
 51
235.3774
  0
ARC
  8
0
 10
-58.21777
 20
225.9196
 30
0.0
 40
103.0129
 50
278.4352
 51
49.56422
  0
ARC
  8
0
 10
-49.59936
 20
-43.26258
 30
0.0
 40
167.4103
 50
87.7772
 51
324.7379
  0
ARC
  8
0
 10
-96.62216
 20
-36.07698
 30
0.0
 40
211.0292
 50
330.5251
 51
352.4855
  0
ARC
  8
0
 10
287.0585
 20
-77.72542
 30
0.0
 40
175.028
 50
313.9788
 51
175.3957
  0
ARC
  8
0
 10
485.7125
 20
-276.2392
 30
0.0
 40
105.8886
 50
136.742
 51
256.0116
  0
CIRCLE
  8
0
 10
1000
 20
7000
 30
0.0
 40
100
  0
CIRCLE
  8
0
 10
3000
 20
7000
 30
0.0
 40
100
  0
CIRCLE
  8
0
 10
5000
 20
7000
 30
0.0
 40
100
  0
CIRCLE
  8
0
 10
100
 20
100
 30
0.0
 40
125
  0
CIRCLE
  8
0
 10
200
 20
200
 30
0.0
 40
200
  0
CIRCLE
  8
0
 10
300
 20
300
 30
0.0
 40
200
  0
CIRCLE
  8
0
 10
350
 20
350
 30
0.0
 40
200
  0
CIRCLE
  8
0
 10
360
 20
360
 30
0.0
 40
200
  0
CIRCLE
  8
0
 10
370
 20
370
 30
0.0
 40
200
  0
ENDSEC
  0
EOF
