  0
SECTION
  2
ENTITIES
  0
LINE
  8
0
 10
304.8
 20
457.2
 30
0.0
 11
406.525
 21
406.3652
 31
0.0
  0
LINE
  8
0
 10
406.525
 20
406.4347
 30
0.0
 11
711.1999
 21
254
 31
0.0
  0
LINE
  8
0
 10
711.1999
 20
254
 30
0.0
 11
304.8
 21
50.80005
 31
0.0
  0
LINE
  8
0
 10
304.8
 20
50.80005
 30
0.0
 11
-101.6001
 21
254
 31
0.0
  0
LINE
  8
0
 10
-101.6001
 20
254
 30
0.0
 11
203.0749
 21
406.4347
 31
0.0
  0
LINE
  8
0
 10
203.0749
 20
406.4347
 30
0.0
 11
304.8
 21
355.6
 31
0.0
  0
LINE
  8
0
 10
304.8
 20
355.6
 30
0.0
 11
508
 21
254
 31
0.0
  0
LINE
  8
0
 10
508
 20
254
 30
0.0
 11
304.8
 21
152.4
 31
0.0
  0
LINE
  8
0
 10
304.8
 20
152.4
 30
0.0
 11
101.6
 21
254
 31
0.0
  0
LINE
  8
0
 10
101.6
 20
254
 30
0.0
 11
304.8
 21
355.6
 31
0.0
  0
LINE
  8
0
 10
304.8
 20
355.6
 30
0.0
 11
406.525
 21
406.4347
 31
0.0
  0
LINE
  8
0
 10
406.525
 20
406.3652
 30
0.0
 11
508.2501
 21
457.2
 31
0.0
  0
LINE
  8
0
 10
508.2501
 20
457.2
 30
0.0
 11
914.4
 21
254
 31
0.0
  0
LINE
  8
0
 10
914.4
 20
254
 30
0.0
 11
304.8
 21
-50.79998
 31
0.0
  0
CIRCLE
  8
0
 10
1000
 20
7000
 30
0.0
 40
100
  0
CIRCLE
  8
0
 10
2500
 20
6000
 30
0.0
 40
100
  0
CIRCLE
  8
0
 10
4000
 20
7000
 30
0.0
 40
100
  0
CIRCLE
  8
0
 10
100
 20
100
 30
0.0
 40
125
  0
CIRCLE
  8
0
 10
200
 20
200
 30
0.0
 40
200
  0
CIRCLE
  8
0
 10
300
 20
300
 30
0.0
 40
200
  0
CIRCLE
  8
0
 10
350
 20
350
 30
0.0
 40
200
  0
CIRCLE
  8
0
 10
360
 20
360
 30
0.0
 40
200
  0
CIRCLE
  8
0
 10
370
 20
370
 30
0.0
 40
200
  0
ENDSEC
  0
EOF
