  0
SECTION
  2
ENTITIES
  0
ARC
  8
0
 10
172.9012
 20
788.1013
 30
0.0
 40
300.6348
 50
184.9803
 51
248.7013
  0
ARC
  8
0
 10
-45.49907
 20
227.8992
 30
0.0
 40
300.6348
 50
4.980126
 51
68.70119
  0
ARC
  8
0
 10
553.5005
 20
280.0955
 30
0.0
 40
300.6348
 50
184.9803
 51
248.7013
  0
ARC
  8
0
 10
335.1003
 20
-280.1066
 30
0.0
 40
300.6348
 50
4.980126
 51
68.70119
  0
ARC
  8
0
 10
335.1011
 20
-227.9015
 30
0.0
 40
300.6348
 50
291.2971
 51
355.0182
  0
ARC
  8
0
 10
553.4848
 20
-788.11
 30
0.0
 40
300.6348
 50
111.2971
 51
175.0182
  0
ARC
  8
0
 10
-45.51331
 20
-735.8961
 30
0.0
 40
300.6348
 50
291.2971
 51
355.0182
  0
ARC
  8
0
 10
172.8704
 20
-1296.105
 30
0.0
 40
300.6348
 50
111.2971
 51
175.0182
  0
CIRCLE
  8
0
 10
1000
 20
6000
 30
0.0
 40
100
  0
CIRCLE
  8
0
 10
2500
 20
8000
 30
0.0
 40
100
  0
CIRCLE
  8
0
 10
4000
 20
6000
 30
0.0
 40
100
  0
CIRCLE
  8
0
 10
100
 20
100
 30
0.0
 40
128
  0
CIRCLE
  8
0
 10
200
 20
200
 30
0.0
 40
200
  0
CIRCLE
  8
0
 10
300
 20
300
 30
0.0
 40
200
  0
CIRCLE
  8
0
 10
350
 20
350
 30
0.0
 40
200
  0
CIRCLE
  8
0
 10
360
 20
360
 30
0.0
 40
200
  0
CIRCLE
  8
0
 10
370
 20
370
 30
0.0
 40
200
  0
ENDSEC
  0
EOF
