  0
SECTION
  2
ENTITIES
  0
ARC
  8
0
 10
288.1793
 20
288.1798
 30
0.0
 40
290.1997
 50
186.764
 51
263.2354
  0
ARC
  8
0
 10
219.8117
 20
-288.1788
 30
0.0
 40
290.1997
 50
6.763933
 51
83.23524
  0
ARC
  8
0
 10
796.1713
 20
-219.8201
 30
0.0
 40
290.1997
 50
186.764
 51
263.2354
  0
ARC
  8
0
 10
727.8037
 20
-796.1786
 30
0.0
 40
290.1997
 50
6.763933
 51
83.23524
  0
ARC
  8
0
 10
727.8037
 20
-727.821
 30
0.0
 40
290.1997
 50
276.7647
 51
353.236
  0
ARC
  8
0
 10
796.1713
 20
-1304.18
 30
0.0
 40
290.1997
 50
96.76473
 51
173.236
  0
ARC
  8
0
 10
219.8117
 20
-1235.821
 30
0.0
 40
290.1997
 50
276.7647
 51
353.236
  0
ARC
  8
0
 10
288.1793
 20
-1812.18
 30
0.0
 40
290.1997
 50
96.76473
 51
173.2361
  0
CIRCLE
  8
0
 10
1000
 20
6000
 30
0.0
 40
100
  0
CIRCLE
  8
0
 10
1000
 20
8000
 30
0.0
 40
100
  0
CIRCLE
  8
0
 10
3000
 20
6000
 30
0.0
 40
100
  0
CIRCLE
  8
0
 10
3000
 20
8000
 30
0.0
 40
100
  0
CIRCLE
  8
0
 10
5000
 20
6000
 30
0.0
 40
100
  0
CIRCLE
  8
0
 10
5000
 20
8000
 30
0.0
 40
100
  0
CIRCLE
  8
0
 10
100
 20
100
 30
0.0
 40
125
  0
CIRCLE
  8
0
 10
200
 20
200
 30
0.0
 40
200
  0
CIRCLE
  8
0
 10
300
 20
300
 30
0.0
 40
200
  0
CIRCLE
  8
0
 10
350
 20
350
 30
0.0
 40
200
  0
CIRCLE
  8
0
 10
360
 20
360
 30
0.0
 40
200
  0
CIRCLE
  8
0
 10
370
 20
370
 30
0.0
 40
200
  0
ENDSEC
  0
EOF
