  0
SECTION
  2
ENTITIES
  0
LINE
  8
0
 10
254
 20
0
 30
0.0
 11
254
 21
-349.6956
 31
0.0
  0
LINE
  8
0
 10
254
 20
-349.6956
 30
0.0
 11
127
 21
-508
 31
0.0
  0
LINE
  8
0
 10
127
 20
-508
 30
0.0
 11
127
 21
-857.6957
 31
0.0
  0
LINE
  8
0
 10
127
 20
-857.6957
 30
0.0
 11
0
 21
-1016
 31
0.0
  0
LINE
  8
0
 10
0
 20
-1016
 30
0.0
 11
0
 21
-1365.696
 31
0.0
  0
LINE
  8
0
 10
0
 20
-1365.696
 30
0.0
 11
127
 21
-1524
 31
0.0
  0
LINE
  8
0
 10
127
 20
-1524
 30
0.0
 11
127
 21
-1873.696
 31
0.0
  0
LINE
  8
0
 10
127
 20
-1873.696
 30
0.0
 11
254
 21
-2032
 31
0.0
  0
CIRCLE
  8
0
 10
1000
 20
6000
 30
0.0
 40
100
  0
CIRCLE
  8
0
 10
2000
 20
8000
 30
0.0
 40
100
  0
CIRCLE
  8
0
 10
3000
 20
6000
 30
0.0
 40
100
  0
CIRCLE
  8
0
 10
100
 20
100
 30
0.0
 40
128
  0
CIRCLE
  8
0
 10
200
 20
200
 30
0.0
 40
200
  0
CIRCLE
  8
0
 10
300
 20
300
 30
0.0
 40
200
  0
CIRCLE
  8
0
 10
350
 20
350
 30
0.0
 40
200
  0
CIRCLE
  8
0
 10
360
 20
360
 30
0.0
 40
200
  0
CIRCLE
  8
0
 10
370
 20
370
 30
0.0
 40
200
  0
ENDSEC
  0
EOF
