  0
SECTION
  2
ENTITIES
  0
LINE
  8
0
 10
0
 20
1899.92
 30
0.0
 11
0
 21
949.9601
 31
0.0
  0
LINE
  8
0
 10
0
 20
949.9601
 30
0.0
 11
70.07491
 21
949.9601
 31
0.0
  0
LINE
  8
0
 10
70.07491
 20
949.9601
 30
0.0
 11
70.07491
 21
1899.92
 31
0.0
  0
LINE
  8
0
 10
70.07491
 20
1899.92
 30
0.0
 11
70.07491
 21
949.9601
 31
0.0
  0
LINE
  8
0
 10
70.07491
 20
949.9601
 30
0.0
 11
253.9684
 21
949.9601
 31
0.0
  0
LINE
  8
0
 10
253.9684
 20
949.9601
 30
0.0
 11
507.9368
 21
949.9601
 31
0.0
  0
LINE
  8
0
 10
507.9368
 20
949.9601
 30
0.0
 11
761.9052
 21
949.9601
 31
0.0
  0
LINE
  8
0
 10
761.9052
 20
949.9601
 30
0.0
 11
761.9052
 21
7.247925E-05
 31
0.0
  0
LINE
  8
0
 10
761.9052
 20
7.247925E-05
 30
0.0
 11
507.9368
 21
7.247925E-05
 31
0.0
  0
LINE
  8
0
 10
507.9368
 20
7.247925E-05
 30
0.0
 11
253.9684
 21
7.247925E-05
 31
0.0
  0
LINE
  8
0
 10
253.9684
 20
7.247925E-05
 30
0.0
 11
70.07491
 21
7.247925E-05
 31
0.0
  0
LINE
  8
0
 10
70.07491
 20
7.247925E-05
 30
0.0
 11
70.07491
 21
949.9601
 31
0.0
  0
LINE
  8
0
 10
70.07491
 20
949.9601
 30
0.0
 11
70.07491
 21
7.247925E-05
 31
0.0
  0
LINE
  8
0
 10
70.07491
 20
7.247925E-05
 30
0.0
 11
0
 21
7.247925E-05
 31
0.0
  0
CIRCLE
  8
0
 10
1000
 20
7000
 30
0.0
 40
100
  0
CIRCLE
  8
0
 10
2500
 20
7000
 30
0.0
 40
100
  0
CIRCLE
  8
0
 10
4000
 20
7000
 30
0.0
 40
100
  0
CIRCLE
  8
0
 10
100
 20
100
 30
0.0
 40
125
  0
CIRCLE
  8
0
 10
200
 20
200
 30
0.0
 40
200
  0
CIRCLE
  8
0
 10
300
 20
300
 30
0.0
 40
200
  0
CIRCLE
  8
0
 10
350
 20
350
 30
0.0
 40
200
  0
CIRCLE
  8
0
 10
360
 20
360
 30
0.0
 40
200
  0
CIRCLE
  8
0
 10
370
 20
370
 30
0.0
 40
200
  0
ENDSEC
  0
EOF
