  0
SECTION
  2
ENTITIES
  0
LINE
  8
0
 10
253.953
 20
807.72
 30
0.0
 11
-253.953
 21
299.8141
 31
0.0
  0
LINE
  8
0
 10
-253.953
 20
299.8141
 30
0.0
 11
-253.953
 21
0
 31
0.0
  0
LINE
  8
0
 10
-253.953
 20
0
 30
0.0
 11
253.953
 21
507.9059
 31
0.0
  0
LINE
  8
0
 10
253.953
 20
507.9059
 30
0.0
 11
253.953
 21
807.72
 31
0.0
  0
LINE
  8
0
 10
253.953
 20
807.72
 30
0.0
 11
761.8589
 21
299.8141
 31
0.0
  0
LINE
  8
0
 10
761.8589
 20
299.8141
 30
0.0
 11
761.8589
 21
0
 31
0.0
  0
LINE
  8
0
 10
761.8589
 20
0
 30
0.0
 11
253.953
 21
507.9059
 31
0.0
  0
LINE
  8
0
 10
253.953
 20
507.9059
 30
0.0
 11
761.8589
 21
0
 31
0.0
  0
LINE
  8
0
 10
761.8589
 20
0
 30
0.0
 11
253.953
 21
-507.9059
 31
0.0
  0
LINE
  8
0
 10
253.953
 20
-507.9059
 30
0.0
 11
761.8589
 21
0
 31
0.0
  0
LINE
  8
0
 10
761.8589
 20
0
 30
0.0
 11
761.8589
 21
-299.8141
 31
0.0
  0
LINE
  8
0
 10
761.8589
 20
-299.8141
 30
0.0
 11
253.953
 21
-807.72
 31
0.0
  0
LINE
  8
0
 10
253.953
 20
-807.72
 30
0.0
 11
253.953
 21
-507.9059
 31
0.0
  0
LINE
  8
0
 10
253.953
 20
-507.9059
 30
0.0
 11
-253.953
 21
0
 31
0.0
  0
LINE
  8
0
 10
-253.953
 20
0
 30
0.0
 11
-253.953
 21
-299.8141
 31
0.0
  0
LINE
  8
0
 10
-253.953
 20
-299.8141
 30
0.0
 11
253.953
 21
-807.72
 31
0.0
  0
CIRCLE
  8
0
 10
1000
 20
7000
 30
0.0
 40
100
  0
CIRCLE
  8
0
 10
3000
 20
7000
 30
0.0
 40
100
  0
CIRCLE
  8
0
 10
5000
 20
7000
 30
0.0
 40
100
  0
CIRCLE
  8
0
 10
100
 20
100
 30
0.0
 40
127
  0
CIRCLE
  8
0
 10
200
 20
200
 30
0.0
 40
200
  0
CIRCLE
  8
0
 10
300
 20
300
 30
0.0
 40
200
  0
CIRCLE
  8
0
 10
350
 20
350
 30
0.0
 40
200
  0
CIRCLE
  8
0
 10
360
 20
360
 30
0.0
 40
200
  0
CIRCLE
  8
0
 10
370
 20
370
 30
0.0
 40
200
  0
ENDSEC
  0
EOF
