  0
SECTION
  2
ENTITIES
  0
ARC
  8
0
 10
81.29818
 20
257.5928
 30
0.0
 40
176.1746
 50
285.6204
 51
359.96
  0
ARC
  8
0
 10
176.1719
 20
-81.74239
 30
0.0
 40
176.1746
 50
105.6205
 51
179.9601
  0
ARC
  8
0
 10
176.1719
 20
-81.49873
 30
0.0
 40
176.1746
 50
180.0392
 51
254.3788
  0
ARC
  8
0
 10
81.29329
 20
-420.8326
 30
0.0
 40
176.1746
 50
.0394879
 51
74.37909
  0
CIRCLE
  8
0
 10
1000
 20
6000
 30
0.0
 40
100
  0
CIRCLE
  8
0
 10
2000
 20
8000
 30
0.0
 40
100
  0
CIRCLE
  8
0
 10
3000
 20
6000
 30
0.0
 40
100
  0
CIRCLE
  8
0
 10
100
 20
100
 30
0.0
 40
125
  0
CIRCLE
  8
0
 10
200
 20
200
 30
0.0
 40
200
  0
CIRCLE
  8
0
 10
300
 20
300
 30
0.0
 40
200
  0
CIRCLE
  8
0
 10
350
 20
350
 30
0.0
 40
200
  0
CIRCLE
  8
0
 10
360
 20
360
 30
0.0
 40
200
  0
CIRCLE
  8
0
 10
370
 20
370
 30
0.0
 40
200
  0
ENDSEC
  0
EOF
