  0
SECTION
  2
ENTITIES
  0
LINE
  8
0
 10
55.52947
 20
169.7579
 30
0.0
 11
-70.67815
 21
43.39482
 31
0.0
  0
LINE
  8
0
 10
-70.67815
 20
43.39482
 30
0.0
 11
-325.626
 21
-211.2421
 31
0.0
  0
LINE
  8
0
 10
-325.626
 20
-211.2421
 30
0.0
 11
-451.8336
 21
-337.6051
 31
0.0
  0
LINE
  8
0
 10
-451.8336
 20
-337.6051
 30
0.0
 11
-196.8858
 21
-592.2421
 31
0.0
  0
LINE
  8
0
 10
-196.8858
 20
-592.2421
 30
0.0
 11
-70.67815
 21
-465.8789
 31
0.0
  0
LINE
  8
0
 10
-70.67815
 20
-465.8789
 30
0.0
 11
184.2697
 21
-211.2421
 31
0.0
  0
LINE
  8
0
 10
184.2697
 20
-211.2421
 30
0.0
 11
310.4773
 21
-84.87894
 31
0.0
  0
LINE
  8
0
 10
310.4773
 20
-84.87894
 30
0.0
 11
184.2697
 21
-211.2421
 31
0.0
  0
LINE
  8
0
 10
184.2697
 20
-211.2421
 30
0.0
 11
310.4773
 21
-337.6051
 31
0.0
  0
LINE
  8
0
 10
310.4773
 20
-337.6051
 30
0.0
 11
565.4252
 21
-592.2421
 31
0.0
  0
LINE
  8
0
 10
565.4252
 20
-592.2421
 30
0.0
 11
691.6328
 21
-718.6051
 31
0.0
  0
LINE
  8
0
 10
691.6328
 20
-718.6051
 30
0.0
 11
436.6849
 21
-973.2421
 31
0.0
  0
LINE
  8
0
 10
436.6849
 20
-973.2421
 30
0.0
 11
310.4773
 21
-846.8789
 31
0.0
  0
LINE
  8
0
 10
310.4773
 20
-846.8789
 30
0.0
 11
55.52947
 21
-592.2421
 31
0.0
  0
LINE
  8
0
 10
55.52947
 20
-592.2421
 30
0.0
 11
-70.67815
 21
-465.8789
 31
0.0
  0
LINE
  8
0
 10
-70.67815
 20
-465.8789
 30
0.0
 11
55.52947
 21
-592.2421
 31
0.0
  0
CIRCLE
  8
0
 10
1000
 20
7000
 30
0.0
 40
100
  0
CIRCLE
  8
0
 10
2500
 20
7000
 30
0.0
 40
100
  0
CIRCLE
  8
0
 10
4000
 20
7000
 30
0.0
 40
100
  0
CIRCLE
  8
0
 10
100
 20
100
 30
0.0
 40
125
  0
CIRCLE
  8
0
 10
200
 20
200
 30
0.0
 40
200
  0
CIRCLE
  8
0
 10
300
 20
300
 30
0.0
 40
200
  0
CIRCLE
  8
0
 10
350
 20
350
 30
0.0
 40
200
  0
CIRCLE
  8
0
 10
360
 20
360
 30
0.0
 40
200
  0
CIRCLE
  8
0
 10
370
 20
370
 30
0.0
 40
200
  0
ENDSEC
  0
EOF
