  0
SECTION
  2
ENTITIES
  0
LINE
  8
0
 10
-2847.341
 20
49.90072
 30
0.0
 11
-2847.341
 21
-3.439276
 31
0.0
  0
LINE
  8
0
 10
-2847.341
 20
-3.439276
 30
0.0
 11
-2714.303
 21
-3.439276
 31
0.0
  0
LINE
  8
0
 10
-2714.303
 20
-3.439276
 30
0.0
 11
-2612.558
 21
38.6106
 31
0.0
  0
LINE
  8
0
 10
-2612.558
 20
38.6106
 30
0.0
 11
-2510.81
 21
-3.439276
 31
0.0
  0
LINE
  8
0
 10
-2510.811
 20
-3.439276
 30
0.0
 11
-2070.997
 21
-3.439276
 31
0.0
  0
LINE
  8
0
 10
-2070.997
 20
-3.439276
 30
0.0
 11
-1631.184
 21
-3.439276
 31
0.0
  0
LINE
  8
0
 10
-1631.186
 20
-3.439276
 30
0.0
 11
-1529.438
 21
38.6106
 31
0.0
  0
LINE
  8
0
 10
-1529.438
 20
38.6106
 30
0.0
 11
-1427.692
 21
-3.439276
 31
0.0
  0
LINE
  8
0
 10
-1427.692
 20
-3.439276
 30
0.0
 11
-1294.653
 21
-3.439276
 31
0.0
  0
LINE
  8
0
 10
-1294.653
 20
-3.439276
 30
0.0
 11
-1294.653
 21
-56.77928
 31
0.0
  0
LINE
  8
0
 10
-1294.653
 20
-56.77928
 30
0.0
 11
-1427.692
 21
-56.77928
 31
0.0
  0
LINE
  8
0
 10
-1427.69
 20
-56.77928
 30
0.0
 11
-1529.436
 21
-14.72941
 31
0.0
  0
LINE
  8
0
 10
-1529.436
 20
-14.72941
 30
0.0
 11
-1631.184
 21
-56.77928
 31
0.0
  0
LINE
  8
0
 10
-1631.184
 20
-56.77928
 30
0.0
 11
-2070.997
 21
-56.77928
 31
0.0
  0
LINE
  8
0
 10
-2070.997
 20
-56.77928
 30
0.0
 11
-2510.811
 21
-56.77928
 31
0.0
  0
LINE
  8
0
 10
-2510.811
 20
-56.77928
 30
0.0
 11
-2612.56
 21
-14.72941
 31
0.0
  0
LINE
  8
0
 10
-2612.56
 20
-14.72941
 30
0.0
 11
-2714.305
 21
-56.77928
 31
0.0
  0
LINE
  8
0
 10
-2714.303
 20
-56.77928
 30
0.0
 11
-2847.341
 21
-56.77928
 31
0.0
  0
CIRCLE
  8
0
 10
1000
 20
7000
 30
0.0
 40
100
  0
CIRCLE
  8
0
 10
4000
 20
7000
 30
0.0
 40
100
  0
CIRCLE
  8
0
 10
7000
 20
7000
 30
0.0
 40
100
  0
CIRCLE
  8
0
 10
100
 20
100
 30
0.0
 40
125
  0
CIRCLE
  8
0
 10
200
 20
200
 30
0.0
 40
200
  0
CIRCLE
  8
0
 10
300
 20
300
 30
0.0
 40
200
  0
CIRCLE
  8
0
 10
350
 20
350
 30
0.0
 40
200
  0
CIRCLE
  8
0
 10
360
 20
360
 30
0.0
 40
200
  0
CIRCLE
  8
0
 10
370
 20
370
 30
0.0
 40
200
  0
ENDSEC
  0
EOF
