  0
SECTION
  2
ENTITIES
  0
LINE
  8
0
 10
251.2292
 20
646.8916
 30
0.0
 11
-503.2913
 21
-107.6289
 31
0.0
  0
LINE
  8
0
 10
-503.2913
 20
-107.6289
 30
0.0
 11
-503.2913
 21
-503.7286
 31
0.0
  0
LINE
  8
0
 10
-503.2913
 20
-503.7286
 30
0.0
 11
251.2292
 21
250.7919
 31
0.0
  0
LINE
  8
0
 10
251.2292
 20
250.7919
 30
0.0
 11
251.2292
 21
646.8916
 31
0.0
  0
LINE
  8
0
 10
251.2292
 20
646.8916
 30
0.0
 11
1005.75
 21
-107.6289
 31
0.0
  0
LINE
  8
0
 10
1005.75
 20
-107.6289
 30
0.0
 11
1005.75
 21
-503.7286
 31
0.0
  0
LINE
  8
0
 10
1005.75
 20
-503.7286
 30
0.0
 11
251.2292
 21
250.7919
 31
0.0
  0
LINE
  8
0
 10
251.2292
 20
250.7919
 30
0.0
 11
1005.75
 21
-503.7286
 31
0.0
  0
LINE
  8
0
 10
1005.75
 20
-503.7286
 30
0.0
 11
251.2292
 21
-1258.249
 31
0.0
  0
LINE
  8
0
 10
251.2292
 20
-1258.249
 30
0.0
 11
1005.75
 21
-503.7286
 31
0.0
  0
LINE
  8
0
 10
1005.75
 20
-503.7286
 30
0.0
 11
1005.75
 21
-899.8282
 31
0.0
  0
LINE
  8
0
 10
1005.75
 20
-899.8282
 30
0.0
 11
251.2292
 21
-1654.348
 31
0.0
  0
LINE
  8
0
 10
251.2292
 20
-1654.348
 30
0.0
 11
251.2292
 21
-1258.249
 31
0.0
  0
LINE
  8
0
 10
251.2292
 20
-1258.249
 30
0.0
 11
-503.2913
 21
-503.7286
 31
0.0
  0
LINE
  8
0
 10
-503.2913
 20
-503.7286
 30
0.0
 11
-503.2913
 21
-899.8282
 31
0.0
  0
LINE
  8
0
 10
-503.2913
 20
-899.8282
 30
0.0
 11
251.2292
 21
-1654.348
 31
0.0
  0
CIRCLE
  8
0
 10
1000
 20
7000
 30
0.0
 40
100
  0
CIRCLE
  8
0
 10
4000
 20
7000
 30
0.0
 40
100
  0
CIRCLE
  8
0
 10
7000
 20
7000
 30
0.0
 40
100
  0
CIRCLE
  8
0
 10
100
 20
100
 30
0.0
 40
127
  0
CIRCLE
  8
0
 10
200
 20
200
 30
0.0
 40
200
  0
CIRCLE
  8
0
 10
300
 20
300
 30
0.0
 40
200
  0
CIRCLE
  8
0
 10
350
 20
350
 30
0.0
 40
200
  0
CIRCLE
  8
0
 10
360
 20
360
 30
0.0
 40
200
  0
CIRCLE
  8
0
 10
370
 20
370
 30
0.0
 40
200
  0
ENDSEC
  0
EOF
