  0
SECTION
  2
ENTITIES
  0
LINE
  8
0
 10
254
 20
254
 30
0.0
 11
635
 21
-127
 31
0.0
  0
LINE
  8
0
 10
635
 20
-127
 30
0.0
 11
254
 21
254
 31
0.0
  0
LINE
  8
0
 10
254
 20
254
 30
0.0
 11
254
 21
208.9478
 31
0.0
  0
LINE
  8
0
 10
254
 20
208.9478
 30
0.0
 11
-81.94783
 21
-127
 31
0.0
  0
LINE
  8
0
 10
-81.94783
 20
-127
 30
0.0
 11
254
 21
-462.9478
 31
0.0
  0
LINE
  8
0
 10
254
 20
-462.9478
 30
0.0
 11
589.9478
 21
-127
 31
0.0
  0
LINE
  8
0
 10
589.9478
 20
-127
 30
0.0
 11
254
 21
208.9478
 31
0.0
  0
LINE
  8
0
 10
254
 20
208.9478
 30
0.0
 11
254
 21
163.8957
 31
0.0
  0
LINE
  8
0
 10
254
 20
163.8957
 30
0.0
 11
153.7273
 21
63
 31
0.0
  0
LINE
  8
0
 10
153.7273
 20
63
 30
0.0
 11
131.3636
 21
41.26087
 31
0.0
  0
LINE
  8
0
 10
131.3636
 20
41.26087
 30
0.0
 11
109
 21
18.43478
 31
0.0
  0
LINE
  8
0
 10
109
 20
18.43478
 30
0.0
 11
-36.89566
 21
-127
 31
0.0
  0
LINE
  8
0
 10
-36.89566
 20
-127
 30
0.0
 11
254
 21
-417.8957
 31
0.0
  0
LINE
  8
0
 10
254
 20
-417.8957
 30
0.0
 11
544.8956
 21
-127
 31
0.0
  0
LINE
  8
0
 10
544.8956
 20
-127
 30
0.0
 11
399
 21
18.43478
 31
0.0
  0
LINE
  8
0
 10
399
 20
18.43478
 30
0.0
 11
254
 21
-127
 31
0.0
  0
LINE
  8
0
 10
254
 20
-127
 30
0.0
 11
109
 21
18.43478
 31
0.0
  0
LINE
  8
0
 10
109
 20
18.43478
 30
0.0
 11
131.3636
 21
41.26087
 31
0.0
  0
LINE
  8
0
 10
131.3636
 20
41.26087
 30
0.0
 11
254
 21
-81.94785
 31
0.0
  0
LINE
  8
0
 10
254
 20
-81.94785
 30
0.0
 11
376.6364
 21
41.26087
 31
0.0
  0
LINE
  8
0
 10
376.6364
 20
41.26087
 30
0.0
 11
354.2727
 21
63
 31
0.0
  0
LINE
  8
0
 10
354.2727
 20
63
 30
0.0
 11
254
 21
163.8957
 31
0.0
  0
LINE
  8
0
 10
254
 20
163.8957
 30
0.0
 11
354.2727
 21
63
 31
0.0
  0
LINE
  8
0
 10
354.2727
 20
63
 30
0.0
 11
254
 21
-36.89569
 31
0.0
  0
LINE
  8
0
 10
254
 20
-36.89569
 30
0.0
 11
153.7273
 21
63
 31
0.0
  0
LINE
  8
0
 10
153.7273
 20
63
 30
0.0
 11
254
 21
163.8957
 31
0.0
  0
LINE
  8
0
 10
254
 20
163.8957
 30
0.0
 11
254
 21
208.9478
 31
0.0
  0
LINE
  8
0
 10
254
 20
208.9478
 30
0.0
 11
254
 21
254
 31
0.0
  0
LINE
  8
0
 10
254
 20
254
 30
0.0
 11
-127
 21
-127
 31
0.0
  0
LINE
  8
0
 10
-127
 20
-127
 30
0.0
 11
254
 21
-508
 31
0.0
  0
LINE
  8
0
 10
254
 20
-508
 30
0.0
 11
635
 21
-127
 31
0.0
  0
LINE
  8
0
 10
635
 20
-127
 30
0.0
 11
254
 21
-508
 31
0.0
  0
CIRCLE
  8
0
 10
1000
 20
7000
 30
0.0
 40
100
  0
CIRCLE
  8
0
 10
2500
 20
7000
 30
0.0
 40
100
  0
CIRCLE
  8
0
 10
4000
 20
7000
 30
0.0
 40
100
  0
CIRCLE
  8
0
 10
100
 20
100
 30
0.0
 40
127
  0
CIRCLE
  8
0
 10
200
 20
200
 30
0.0
 40
200
  0
CIRCLE
  8
0
 10
300
 20
300
 30
0.0
 40
200
  0
CIRCLE
  8
0
 10
350
 20
350
 30
0.0
 40
200
  0
CIRCLE
  8
0
 10
360
 20
360
 30
0.0
 40
200
  0
CIRCLE
  8
0
 10
370
 20
370
 30
0.0
 40
200
  0
ENDSEC
  0
EOF
