  0
SECTION
  2
ENTITIES
  0
ARC
  8
0
 10
126.7871
 20
251.8697
 30
0.0
 40
137.3173
 50
294.5833
 51
.88857
  0
ARC
  8
0
 10
241.0389
 20
2.128669
 30
0.0
 40
137.3173
 50
114.5831
 51
180.8885
  0
ARC
  8
0
 10
241.0389
 20
-2.129613
 30
0.0
 40
137.3173
 50
179.1115
 51
245.4168
  0
ARC
  8
0
 10
126.7871
 20
-251.8706
 30
0.0
 40
137.3173
 50
359.1112
 51
65.41676
  0
CIRCLE
  8
0
 10
1000
 20
7000
 30
0.0
 40
100
  0
CIRCLE
  8
0
 10
1500
 20
8000
 30
0.0
 40
100
  0
CIRCLE
  8
0
 10
2000
 20
7000
 30
0.0
 40
100
  0
CIRCLE
  8
0
 10
100
 20
100
 30
0.0
 40
126
  0
CIRCLE
  8
0
 10
200
 20
200
 30
0.0
 40
200
  0
CIRCLE
  8
0
 10
300
 20
300
 30
0.0
 40
190
  0
CIRCLE
  8
0
 10
350
 20
350
 30
0.0
 40
200
  0
CIRCLE
  8
0
 10
360
 20
360
 30
0.0
 40
200
  0
CIRCLE
  8
0
 10
370
 20
370
 30
0.0
 40
200
  0
ENDSEC
  0
EOF
