  0
SECTION
  2
ENTITIES
  0
LINE
  8
0
 10
-507.6288
 20
1016.124
 30
0.0
 11
-126.7526
 21
635
 31
0.0
  0
LINE
  8
0
 10
-126.7526
 20
635
 30
0.0
 11
254.1237
 21
253.8763
 31
0.0
  0
LINE
  8
0
 10
254.1237
 20
253.8763
 30
0.0
 11
209.0715
 21
253.8909
 31
0.0
  0
LINE
  8
0
 10
209.0715
 20
253.8909
 30
0.0
 11
-126.7672
 21
589.9478
 31
0.0
  0
LINE
  8
0
 10
-126.7672
 20
589.9478
 30
0.0
 11
-462.8241
 21
254.1091
 31
0.0
  0
LINE
  8
0
 10
-462.8241
 20
254.1091
 30
0.0
 11
-126.9853
 21
-81.94781
 31
0.0
  0
LINE
  8
0
 10
-126.9853
 20
-81.94781
 30
0.0
 11
209.0715
 21
253.8909
 31
0.0
  0
LINE
  8
0
 10
209.0715
 20
253.8909
 30
0.0
 11
164.0194
 21
253.9055
 31
0.0
  0
LINE
  8
0
 10
164.0194
 20
253.9055
 30
0.0
 11
63.15626
 21
354.211
 31
0.0
  0
LINE
  8
0
 10
63.15626
 20
354.211
 30
0.0
 11
41.42439
 21
376.5818
 31
0.0
  0
LINE
  8
0
 10
41.42439
 20
376.5818
 30
0.0
 11
18.60554
 21
398.9528
 31
0.0
  0
LINE
  8
0
 10
18.60554
 20
398.9528
 30
0.0
 11
-126.7818
 21
544.8956
 31
0.0
  0
LINE
  8
0
 10
-126.7818
 20
544.8956
 30
0.0
 11
-417.7719
 21
254.0944
 31
0.0
  0
LINE
  8
0
 10
-417.7719
 20
254.0944
 30
0.0
 11
-126.9707
 21
-36.89565
 31
0.0
  0
LINE
  8
0
 10
-126.9707
 20
-36.89565
 30
0.0
 11
18.5114
 21
108.9528
 31
0.0
  0
LINE
  8
0
 10
18.5114
 20
108.9528
 30
0.0
 11
-126.8763
 21
254
 31
0.0
  0
LINE
  8
0
 10
-126.8763
 20
254
 30
0.0
 11
18.60554
 21
398.9528
 31
0.0
  0
LINE
  8
0
 10
18.60554
 20
398.9528
 30
0.0
 11
41.42439
 21
376.5818
 31
0.0
  0
LINE
  8
0
 10
41.42439
 20
376.5818
 30
0.0
 11
-81.82414
 21
253.9854
 31
0.0
  0
LINE
  8
0
 10
-81.82414
 20
253.9854
 30
0.0
 11
41.34475
 21
131.309
 31
0.0
  0
LINE
  8
0
 10
41.34475
 20
131.309
 30
0.0
 11
63.09114
 21
153.6656
 31
0.0
  0
LINE
  8
0
 10
63.09114
 20
153.6656
 30
0.0
 11
164.0194
 21
253.9055
 31
0.0
  0
LINE
  8
0
 10
164.0194
 20
253.9055
 30
0.0
 11
63.09114
 21
153.6656
 31
0.0
  0
LINE
  8
0
 10
63.09114
 20
153.6656
 30
0.0
 11
-36.77199
 21
253.9707
 31
0.0
  0
LINE
  8
0
 10
-36.77199
 20
253.9707
 30
0.0
 11
63.15626
 21
354.211
 31
0.0
  0
LINE
  8
0
 10
63.15626
 20
354.211
 30
0.0
 11
164.0194
 21
253.9055
 31
0.0
  0
LINE
  8
0
 10
164.0194
 20
253.9055
 30
0.0
 11
209.0715
 21
253.8909
 31
0.0
  0
LINE
  8
0
 10
209.0715
 20
253.8909
 30
0.0
 11
254.1237
 21
253.8763
 31
0.0
  0
LINE
  8
0
 10
254
 20
254
 30
0.0
 11
-127
 21
-127
 31
0.0
  0
LINE
  8
0
 10
-127
 20
-127
 30
0.0
 11
-508.1237
 21
-507.8763
 31
0.0
  0
CIRCLE
  8
0
 10
1000
 20
7000
 30
0.0
 40
100
  0
CIRCLE
  8
0
 10
1000
 20
8000
 30
0.0
 40
100
  0
CIRCLE
  8
0
 10
2500
 20
7000
 30
0.0
 40
100
  0
CIRCLE
  8
0
 10
2500
 20
8000
 30
0.0
 40
100
  0
CIRCLE
  8
0
 10
4000
 20
7000
 30
0.0
 40
100
  0
CIRCLE
  8
0
 10
4000
 20
8000
 30
0.0
 40
100
  0
CIRCLE
  8
0
 10
100
 20
100
 30
0.0
 40
127
  0
CIRCLE
  8
0
 10
200
 20
200
 30
0.0
 40
200
  0
CIRCLE
  8
0
 10
300
 20
300
 30
0.0
 40
200
  0
CIRCLE
  8
0
 10
350
 20
350
 30
0.0
 40
200
  0
CIRCLE
  8
0
 10
360
 20
360
 30
0.0
 40
200
  0
CIRCLE
  8
0
 10
370
 20
370
 30
0.0
 40
200
  0
ENDSEC
  0
EOF
