  0
SECTION
  2
ENTITIES
  0
ARC
  8
0
 10
305.7628
 20
769.2925
 30
0.0
 40
202.3689
 50
322.821
 51
357.9351
  0
LINE
  8
0
 10
467.0002
 20
646.9989
 30
0.0
 11
168.0007
 21
115.0012
 31
0.0
  0
ARC
  8
0
 10
329.238
 20
-7.292371
 30
0.0
 40
202.3689
 50
142.8209
 51
177.9349
  0
ARC
  8
0
 10
329.2381
 20
7.29248
 30
0.0
 40
202.3689
 50
182.065
 51
217.1791
  0
LINE
  8
0
 10
168.0007
 20
-115.0017
 30
0.0
 11
467.0003
 21
-646.9994
 31
0.0
  0
ARC
  8
0
 10
305.763
 20
-769.2929
 30
0.0
 40
202.3689
 50
2.065202
 51
37.17922
  0
CIRCLE
  8
0
 10
1000
 20
7000
 30
0.0
 40
100
  0
CIRCLE
  8
0
 10
2000
 20
8000
 30
0.0
 40
100
  0
CIRCLE
  8
0
 10
3000
 20
7000
 30
0.0
 40
100
  0
CIRCLE
  8
0
 10
100
 20
100
 30
0.0
 40
125
  0
CIRCLE
  8
0
 10
200
 20
200
 30
0.0
 40
200
  0
CIRCLE
  8
0
 10
300
 20
300
 30
0.0
 40
200
  0
CIRCLE
  8
0
 10
350
 20
350
 30
0.0
 40
200
  0
CIRCLE
  8
0
 10
360
 20
360
 30
0.0
 40
200
  0
CIRCLE
  8
0
 10
370
 20
370
 30
0.0
 40
200
  0
ENDSEC
  0
EOF
