  0
SECTION
  2
ENTITIES
  0
LINE
  8
0
 10
253.9588
 20
999.49
 30
0.0
 11
-380.9382
 21
349.4998
 31
0.0
  0
LINE
  8
0
 10
-380.9382
 20
349.4998
 30
0.0
 11
-380.9382
 21
0
 31
0.0
  0
LINE
  8
0
 10
-380.9382
 20
0
 30
0.0
 11
253.9588
 21
649.9902
 31
0.0
  0
LINE
  8
0
 10
253.9588
 20
649.9902
 30
0.0
 11
253.9588
 21
999.49
 31
0.0
  0
LINE
  8
0
 10
253.9588
 20
999.49
 30
0.0
 11
888.8558
 21
349.4998
 31
0.0
  0
LINE
  8
0
 10
888.8558
 20
349.4998
 30
0.0
 11
888.8558
 21
0
 31
0.0
  0
LINE
  8
0
 10
888.8558
 20
0
 30
0.0
 11
253.9588
 21
649.9902
 31
0.0
  0
LINE
  8
0
 10
253.9588
 20
649.9902
 30
0.0
 11
888.8558
 21
0
 31
0.0
  0
LINE
  8
0
 10
888.8558
 20
0
 30
0.0
 11
253.9588
 21
-649.9902
 31
0.0
  0
LINE
  8
0
 10
253.9588
 20
-649.9902
 30
0.0
 11
888.8558
 21
0
 31
0.0
  0
LINE
  8
0
 10
888.8558
 20
0
 30
0.0
 11
888.8558
 21
-349.4998
 31
0.0
  0
LINE
  8
0
 10
888.8558
 20
-349.4998
 30
0.0
 11
253.9588
 21
-999.49
 31
0.0
  0
LINE
  8
0
 10
253.9588
 20
-999.49
 30
0.0
 11
253.9588
 21
-649.9902
 31
0.0
  0
LINE
  8
0
 10
253.9588
 20
-649.9902
 30
0.0
 11
-380.9382
 21
0
 31
0.0
  0
LINE
  8
0
 10
-380.9382
 20
0
 30
0.0
 11
-380.9382
 21
-349.4998
 31
0.0
  0
LINE
  8
0
 10
-380.9382
 20
-349.4998
 30
0.0
 11
253.9588
 21
-999.49
 31
0.0
  0
CIRCLE
  8
0
 10
1000
 20
7000
 30
0.0
 40
100
  0
CIRCLE
  8
0
 10
3500
 20
7000
 30
0.0
 40
100
  0
CIRCLE
  8
0
 10
6000
 20
7000
 30
0.0
 40
100
  0
CIRCLE
  8
0
 10
100
 20
100
 30
0.0
 40
127
  0
CIRCLE
  8
0
 10
200
 20
200
 30
0.0
 40
200
  0
CIRCLE
  8
0
 10
300
 20
300
 30
0.0
 40
200
  0
CIRCLE
  8
0
 10
350
 20
350
 30
0.0
 40
200
  0
CIRCLE
  8
0
 10
360
 20
360
 30
0.0
 40
200
  0
CIRCLE
  8
0
 10
370
 20
370
 30
0.0
 40
200
  0
ENDSEC
  0
EOF
